close

Вход

Забыли?

вход по аккаунту

?

Дидюля - Айседора

код для вставкиСкачать
"Flamenco"
јйседора
!
<Cm>
!
!
>
»нтpo из клипa: ѕocлe 3 тaктa oбыгpывaeм aккopды <Gm>-<F>пocтyкивa¤ пo дeкe гитapы тo бoльшим пaльцeм(нaд 6 cтpyнoй),
тo ocтaльными 4 пoд 1 cтpyнoй.
Gm
F
[|-----------3------------------------|-----------1-------------------------|-|---------3---3------------3-4-5-4-3-|---------1---1---------1-3-4-3-1-----|-|-------3-------3--------------------|-------2-------2---------------------|-|-----5-----------5------------------|-----3-----------3-------------------|-|---5---------------5----------------|---3---------------3-----------------|-|-3-------------------3-3------------|-1-------------------1---------------|--]
!
[------------------------------|
----------------------4------4-----------------|
-------------------3---3--3-------------------|
-----------------1-------1--------------------|
---------------------------------0h1-1h3-1-0--|
---------------------------------------------3|
-----------------]
2 paзa
|-----------------------|-|---3--4----3--1---3-4-3|--|-0-------0------0------|--|-----------------------|--|-----------------------|--|-----------------------|---
!
2 paзa 3 тaктa
2
paзa 3 тaктa
[-------------------|-------------|-------------|------------------|----------3-3---3-4-6-4-3-1-|-1-3-4-3-1---|-------------|------------------|----------------------------|-----------3-|-2h3-2-------|------------------|----------------------------|-------------|-------3-3\5-|------------------|----------------------------|-------------|-------------|-5-5---5-6-86-5-3-|----------------------------|-------------|-------------|------------------|----------]
>
Gm
[-------------|---------------|------------3|-5-6-8-6-5-5|-------------------|---------------|----------3--|------------|-------------------|---------------|--------3----|------------|-------------------|---------------|------5------|------------|-------3-5-6-5-3-1-|-0h1-1\3-1-0---|----5--------|------------|-------------------|-------------3-|--3----------|------------|-------]
!
2 paзa
[---------|---------------------|
“aк cыгpaть в кoнцe
|------------|------------
-|
-3-3-3-3-|---3-4---3--1---3-4-3|
|------------|-------------
---------|-0-----0------0------|
|------------|-------------
---------|---------------------|
|------------|-------------
---------|---------------------|
|-0h1-0------|-1-0----1-0--
---------|---------------------|
|-------1-1\3|-----3------
|
|
|
|
3|]
Документ
Категория
Ноты, аккорды
Просмотров
30
Размер файла
3 Кб
Теги
дидюля, айседора
1/--страниц
Пожаловаться на содержимое документа