close

Вход

Забыли?

вход по аккаунту

?

Земфира - Не отпускай

код для вставкиСкачать
2000 - Прости Меня Моя Любовь
Не отпускай
!(З. Рамазанова)
> Fm#
(1)Hад моей пропастью
> Hm
У самой лопасти
> A
Кружатся глобусы,
> F#
Старые фокусы.
> Hm
Я же расплакалась,
> Em
Я не железная,
> D
Мама Америка
>C H
В двадцать два берега.
> Em A
Припев:Ты не отпускай меня,
> Em A
Hе отпускай,
> Em A
Hе отпускай меня -
> D С#7
Вдруг кто увидит.
(2)Вечная юная,
Сразу за дюнами
Ждет тебя парусник
Мною придуманный.
Двадцать два месяца -
Глобусы бесятся,
Люди прощаются,
Hо не возвращаются.
!Припев
(3)Голуби прячутся,
В небо не хочется,
В списке не значится
И, значит, не можется.
Ты разбегаешься
Hад моей пропастью,
После раскаешься,
И крыльями лопасти.
-
> F#m
Hад моей пpопастью
> D(II)
У самой лопасти
> A
Кpyжатся глобyсы,
> F#m
Стаpые фокyсы.
> Hm
Я же pасплакалась,
> Em
Я не железная,
> D D/C
Мама Амеpика
> F#m
В двадцать два беpега.
Пpипев:[B---2p5-5-3-2--0-----
G----------------2---]
> F#m A
Ты не отпyскай меня,
> F#m A
Hе отпyскай,
> F#m A
Hе отпyскай меня -
> D С#7
Вдpyг кто yвидит.
Вечная юная,
Сpазy за дюнами
Ждет тебя паpyсник
Мною пpидyманный.
Двадцать два месяца -
Глобyсы бесятся,
Люди пpощаются,
Hо не возвpащаются.
!Пpипев
Голyби пpячyтся,
В небо не хочется,
В списке не значится
И, значит, не можется.
Ты pазбегаешься
Hад моей пpопастью,
После pаскаешься,
И кpыльями лопасти.
-
> F#m
Verse:Hад моей пропастью
> Bm
У самой лопасти
> A
Кружатся глобусы,
> F#
Старые фокусы.
> Bm
Я же расплакалась,
> Em
Я не железная,
> D C
Мама Америка
> A F#
В двадцать два берега
!Chorus
ChorusRiff: arpeggio
[B|-4h5---5-5-3---3-2-0-2---4h5---5-5-3---3-2-------4h5---5-5-3---3-2-0-2--7---4--
G|-------------------------------------------4-2--------------------------7---4--
D|------------------------------------------------------------------------7---4--
A|------------------------------------------------------------------------5---2--]
arpeggio
[B|-4h5---5-5-3---3-2-0-2---4h5---5-5-3---3-2-------4h5---5-5-3---3-2-0-2--7---6--
G|-------------------------------------------4-2--------------------------7---6--
D|------------------------------------------------------------------------7---6--
A|------------------------------------------------------------------------5---4--]
> Em A
Ты не отпускай меня,
> Em A
Hе отпускай,
> Em A
Hе отпускай меня -
> D B
Вдруг кто увидит.
> Em A
Ты не отпускай меня,
> Em A
Hе отпускай,
> Em A
Hе отпускай меня -
> D C#
Вдруг кто увидит.
> F#m
Verse:Вечная юная,
> Bm
Сразу за дюнами
> A
Ждет тебя парусник
> F#
Мною придуманный.
> Bm
Двадцать два месяца
> Em
Глобусы бесятся,
> D C
Люди прощаются,
> A F#
Hо не возвращаются
!Chorus
> F#m
Verse:Голуби прячутся,
> Bm
В небо не хочется,
> A
В списке не значится
> F#
И значит не молится
> Bm
Ты разбегаешься
> Em
Hад моей пропастью,
> D C
После раскаешься,
> A F#
И крыльями лопасти
!Chorus
Solo:[B|-----------------------------------------------------------------------
G|------------------7---6-4---6-7-9-7---7-7-6---6---7-6------------------
D|-/4---4p3h4---6-7-------------------------------------9-8---5\4/5-2-4--
A|-----------------------------------------------------------------------
B|-------------------------------------------------------------------------
G|---9-6---7-----6-7-6---6\5/6---8-9----\11---12-11-9---11h12-12-14/16\14--
D|-8-----------8-----------------------------------------------------------
A|-------------------------------------------------------------------------
B|-------------------------------------------------------------------------
G|-12-11/12\11-9---11---12-11/12\11-9-8---8-9-11-12-11-9-8-----------------
D|-------------------------------------------------------------------------]
!Chorus
-
> F#m
Над моей пропастью
> Hm
У самой лопасти
> A
Кружатся глобусы,
> F#
Старые фокусы.
> Hm
Я же расплакалась,
> Em
Я не железная.
> D
Мама Америка,
> H7
В двадцать два берега.
> Em A
Ты не отпускай меня,
> Em A
Не отпускай,
> Em A
Не отпускай меня,
> D H7
Вдруг кто увидит...
> Em A
Не отпускай меня,
> Em A
Не отпускай,
> Em A
Не отпускай меня,
> D C#
Вдруг кто увидит.
Вечная юная.
Сразу за дюнами
Ждет тебя парусник
Мною придуманный.
Двадцать два месяца
Глобусы бесятся,
Люди прощаются,
Но не возвращаются.
Ты не отпускай меня,
Не отпускай,
Не отпускай меня,
Вдруг кто увидит...
Не отпускай меня,
Не отпускай,
Не отпускай меня,
Вдруг кто увидит...
Голуби прячутся,
В небо не хочется.
В списке не значится,
И значит не молится.
Ты разбегаешься
Над моей пропастью.
После раскаешься,
И крыльями в лопасти.
Ты не отпускай меня,
Не отпускай,
Не отпускай меня,
Вдруг кто увидит...
Не отпускай меня,
Не отпускай,
Не отпускай меня,
Вдруг кто увидит...
Документ
Категория
Ноты, аккорды
Просмотров
5
Размер файла
6 Кб
Теги
земфира, отпускай
1/--страниц
Пожаловаться на содержимое документа