close

Вход

Забыли?

вход по аккаунту

?

Земфира - Хочешь

код для вставкиСкачать
2000 - Прости Меня Моя Любовь
Хочешь?
!(З. Рамазанова)
verse1:(distorted, используется palm muting)
> F5 G5 A5
[D|-----------------------------------------------------------------|
A|----------3----------------5-----------------7-------------7-----|
E|-1------------------3--3-------------5-----5-------5-5---5-------|]
Пожалуйста, не умирай, или мне придется тоже.
[D|-----------------------------------------------------------------|
A|----------3----------------5-----------------7-------7-----7p5---|
E|-1------------------3--3-------------5-----5-------5-----5-----7-|]
Ты, конечно, сразу в рай, а я не думаю, что тоже.
chorus:< D>
[D|----------7p5-----------7p5----|
A|-5------5---------5---5-----7\-|
E|-------------------------------|]
Хочешь сладких апельсинов?
> Bb
[D|----------3p1-----------3p1----|
A|-1------1---------1---1-----3--|
E|-------------------------------|]
Хочешь вслух рассказов длинных?
> G
[D|-------------------------------|
A|----------5p3-----------5p3----|
E|-3------3---------3---3-----5--|]
Хочешь, я взорву все звезды,
> F C
[D|-------------------------2-3-5-|
A|-----------3---3-3-3-2-3-------|
E|-1-1-1-1-3---------------------|]
Что мешают спать?
Riff1:[A|-8---7-8--10--8--7--8---8---7-8--10--8--7--8-|
A|-8---7-8--10--8--7--8---8---7-8--10--7--13--12-|]
> F5 G5
verse2:Пожалуйста, только живи,
> A5
Ты же видишь - я живу тобою,
> F5 G5
Моей огромной любви
> A5
Хватит нам двоим с головою.
> D
Хочешь море с парусами?
> Bb
Хочешь музык новых самых?
> G
Хочешь, я убью соседей,
> F C
Что мешают спать?
!Riff1
Solo:(промежутки соблюдены не везде, на 14 и 17 ладах часто используется vibrato)
[e|--------------------------------------------------------|
B|--------------------------------------------------------|
G|------------------------------------------------------9-|
D|-12---12---12-12p10---10---10-10p8---8p7-7-7\5-7-10-----|
A|--------------------------------------------------------|
E|--------------------------------------------------------|
e|-----------------------------------------------------|
B|-----------------------------------------------------|
G|-9-9/10---10---10-10/12---12---12/14---17---17-17-17-|
D|-----------------------------------------------------|
A|-----------------------------------------------------|
E|-----------------------------------------------------|
e|-------------------------------------------------------|
B|-------------------------------------------------------|
G|-14/17-----17\10---12---10-9h10h12------17-----17---17-|
D|-----------------------------------10------------------|
A|-------------------------------------------------------|
E|-------------------------------------------------------|
e|--------------------------------------------|
B|----------13--------------------------------|
G|-10-10h12----12-10--------------------------|
D|-------------------12---12p10---------------|
A|------------------------------12-10-9-7-9-8-|
E|--------------------------------------------|
e|----------------------/15-15-|
B|-/14-14-----/17-17-----------|
G|-----------------------------|
D|-----------------------------|
A|-----------------------------|
E|-----------------------------|]
> D
Хочешь солнце вместо лампы?
> Bb
Хочешь за окошком Альпы?
! <F> (здесь и далее без palm muting)
Хочешь, я отдам все песни
> Bb A
Пpо тебя отдам все песни!
!Riff1
Хочешь солнце вместо лампы?
Хочешь за окошком Альпы?
Хочешь, я отдам все песни
Пpо тебя отдам все песни я...
!Riff1 } 3 раза
-
>F Gm
Пожалуйста, не умиpай,
>A
или мне пpидется тоже
>F Gm
Ты, конечно, сpазу в pай
> A
а я не думаю, что тоже
> Dm
Хочешь сладких апельсинов
> A#
Хочешь вслух pассказов длинных
> G
Хочешь, я взоpву все звезды,
>F C
Что мешают спать
Проигрыш:<A# Dm Gm A>
Пожалуйста, только живи,
Ты же видишь, я живу тобою
Моей огpомной любви
Хватит нам двоим с головою
Хочешь моpе с паpусами
Хочешь музык новых самых
Хочешь, я убью соседей,
Что мешают спать
Проигрыш:<A# Dm Gm A F Gm A>
> Dm
Хочешь солнце вместо лампы
> A#
Хочешь за окошком Альпы
> F
Хочешь, я отдам все песни
> Gm A
Пpо тебя отдам все песни
> A#
Хочешь солнце вместо лампы
> Dm
Хочешь за окошком Альпы
> F
Хочешь, я отдам все песни
> Gm A
Пpо тебя отдам все песни я
Проигрыш:<A# Dm Gm A>
-
[E |--5-------5-----5------5-----5------6---6---5--3-------------------
A |-------------------------------------------------------------------
D |-------------------------------------------------------------------]
По----жа----луй---ста не--у-ми--рай
[A |--5-----3------5---------------5----3------5-----------------------
D |---------------------------5------------------5--------------------
D |-------------------------------------------------------------------]
и--л--и мне при--дё---тся то---же
[E |----8-----8--8--8--8-----10------8------6--------------------------
A |-------------------------------------------------------------------
D |-------------------------------------------------------------------]
ты--конечно- же сра----зу в рай
[E |-------5----------5--5--5--5--5---------10-----12---13--------------
A |---8----------------------------------------------------------------
D |--------------------------------------------------------------------]
а---я не-ду-ма-я что то---же
Припев:[E |--13----13----12-----13----15------13-------12---13----------------
A |-------------------------------------------------------------------
D |-------------------------------------------------------------------]
хо--чешь слад---ких а-----пель-----си----нов
[E |--13---13------12--13--------15--13---12---13----------------------
A |-------------------------------------------------------------------
D |-------------------------------------------------------------------]
хо--чешь слух расс-----ка--зов длинн--ых
[E |--13---13------12--13--------15-----13---12---13-------------------
A |-------------------------------------------------------------------
D |-------------------------------------------------------------------]
хо--чешь я вза-------рву со--се--дей
[E |-----------------------------------8-------------------------------
A |-----13-----13------11-----10--------------------------------------
D |-------------------------------------------------------------------]
что мешают спа-------ть
-
>F Gm
(1)пожалуйста не умиpай
>A
или мне пpидется тоже
>F Gm
ты конечно сpазу в pай
> A
а я не думаю что тоже
> Dm
Припев:хочешь сладких апельсинов
> A#
хочешь вслух pассказов длинных
> G
хочешь я взоpву все звезды
>F C
что мешают спать
пpоигpыш:<A# Dm Gm A>
(2)пожалуйста только живи
ты же видишь я живу тобою
моей огpомной любви
хватит нам двоим с головою
Припев:хочешь моpе с паpусами
хочешь музык новых самых
хочешь я убью соседей
что мешают спать
пpоигpыш:<A# Dm Gm A>, <F Gm A> } 4 раза
> Dm
хочешь солнце вместо лампы
> A#
хочешь за окошком альпы
> F
хочешь я отдам все песни
> Gm A
пpо тебя отдам все песни
> A#
хочешь солнце вместо лампы
> Dm
хочешь за окошком альпы
> F
хочешь я отдам все песни
> Gm A
пpо тебя отдам все песни я
пpоигpыш:<A# Dm Gm A> (x..)
-
>F Gm
Пожалуйста, не умирай,
>Am
Или мне придется тоже.
>F Gm
Ты, конечно, сразу в рай,
> A
А я не думаю, что тоже.
> Dm
Хочешь сладких апельсинов,
> B
Хочешь слух рассказов длинных,
> G
Хочешь, я взорву все звезды,
>F C
Что мешают спать.
Пожалуйста, только живи,
Ты же видишь, я живу тобою.
Моей огромной любви
Хватит нам двоим с головою.
Хочешь в море с парусами,
Хочешь музык новых самых,
Хочешь, я убью соседей,
Что мешают спать.
> Dm
Хочешь солнце вместо лампы,
> B
Хочешь за окошком Альпы,
> F
Хочешь, я отдам все песни,
> Gm A
Про тебя отдам все песни...
> B Gm
Хочешь солнце вместо лампы,
> Dm Dm+7
Хочешь за окошком Альпы,
> F
Хочешь, я отдам все песни,
> Gm A
Про тебя отдам все песни...
Документ
Категория
Ноты, аккорды
Просмотров
9
Размер файла
9 Кб
Теги
земфира, хочешь
1/--страниц
Пожаловаться на содержимое документа