close

Вход

Забыли?

вход по аккаунту

?

Кино - Лето

код для вставкиСкачать
*НЕИЗВЕСТНЫЕ ПЕСНИ ВИКТОРА ЦОЯ* (1982-84)
ЛЕТО
> G H7 Em
В городе плюс двадцать пять - Лето,
> C G
Электрички набиты битком,
> D Em
Все едут к реке.
> G
День словно два,
> H7 Em
Ночь словно час - Лето.
> C
Солнце в кружке пивной,
> G D Em
Солнце в грани стакана в руке.
Девяносто два дня - Лето,
Теплый портвейн,
Из бумажных стаканов вода.
Девяносто два дня - Лето.
Летний дождь наливает
В бутылку двора ночь.
-
!Introduction
> Am D /Rhythm guitar/
|-------------------------------------2--2--2--2--2--2--2-2-5-3-2----|
|--5--8--8--8--8--8--8--8-7-5------3---------------------------------|
|-----------------------------4--------------------------------------|
|--------------------------------------------------------------------|
|--------------/Solo Guitar/-----------------------------------------|
|--------------------------------------------------------------------|
> Hm C
|-----2--2--2--2--2--2--2-2-5-3-2------------------------------------|
|--3-----------------------------------------------------------------|
|---------------------------------------5--5--5--5--5--5--5-8-7------|
|------------------------------------5--------------------------4----|
|--------------------------------------------------------------------|
|--------------------------------------------------------------------|
!Fill for the 2nd verse.
> Em Am
|-------------------------------|-----------------------------|
|-------------------------------|-----------------------------|
|-------------------------------|--2-4-5-4-2-4-5-4-2-4-5-4etc.|
|--2-4-5-4-2-4-5-4-2-4-5-4-etc.-|-----------------------------|
|-------------------------------|-----------------------------|
|-------------------------------|-----------------------------|
!Fill for the 3rd verse.
> Em Am
|----------------------3-2-0----|-----------------------8-7-5-|
|-------------------------------|----------------5------------|
|----------------4--------------|--2------5-------------------|
|--2------5---------------------|-----------------------------|
|-------------------------------|-----------------------------|
|-------------------------------|-----------------------------|
!‚бвyЇ«Ґ­іҐ:
[e|-0-0-3-0-2-2-0-2-3-3-2-3-0----0--0-0-3-0-2-2-0-2-3-3--------------
b|-1--------3--------0---------0-2----1--------3--------0-0---------
g|-2--------2--------0-----------------2--------2--------0-0--------
d|-2--------0--------0-----------------2--------0--------0-0--0-----
a|-0--------0--------2-----------------0--------0--------0-0----0---
e|-0--------0--------3-----------------0--------0--------0-0------0-]
Документ
Категория
Ноты, аккорды
Просмотров
5
Размер файла
3 Кб
Теги
лето, Кино
1/--страниц
Пожаловаться на содержимое документа