close

Вход

Забыли?

вход по аккаунту

?

Зинчук Виктор - Mix№1

код для вставкиСкачать
Mix�
!s-(staccato)
! s s s
[E||---------------------
B||-12-10-12------------
G||----------11-9�----
D||------------------9-- } 2 pa鏰
A||---------------------
D||---------------------
E||----9-10--9h10-9-9--9-7h9-7-7-7-5h7-5-5- 7- 飌� 飋怛ope 9-
B||-12------------------------------------- -- -
G||---------------------------------------- -- -
D||---------------------------------------- --
A||---------------------------------------- --
D||---------------------------------------- --]
! 蒡o 溻a pa鏰
! s s s
[E||--14-12-14--------------
B||-----------14-12h14-----
G||--------------------11-- } 2 pa鏰
D||------------------------
A||------------------------
D||------------------------
E||--14-16-17--16h17--16�-16-14h16�-14-14-12h14-12-12-14--
B||-----------------------------------------------------------
G||-----------------------------------------------------------
D||-----------------------------------------------------------
A||-----------------------------------------------------------
D||-----------------------------------------------------------]
Документ
Категория
Ноты, аккорды
Просмотров
8
Размер файла
1 Кб
Теги
виктор, mix, зинчук
1/--страниц
Пожаловаться на содержимое документа