close

Вход

Забыли?

вход по аккаунту

?

Зинчук Виктор - El Condor Pasa (Полет Орла)

код для вставкиСкачать
El Condor Pasa (Полет Орла)
[E---------2-3-2-3-5-5/7~-10-10-7~-10/12/10-7~-7-5-3-5-3-0-
B-0-5-4-5-------------------------------------------------
G---------------------------------------------------------
D---------------------------------------------------------
A---------------------------------------------------------
E---------------------------------------------------------
E---------2-3-2-3-5-5/7~-10-10-7~--7-10-12-10-12-10-7~----
B-0-5-4-5-------------------------------------------------
G---------------------------------------------------------
D---------------------------------------------------------
A---------------------------------------------------------
E---------------------------------------------------------
--7-5-3-5-3-0-
--------------
--------------
--------------
--------------
--------------
E--7-12--10-12-10-12-10-12--12-15-12-10--10-12-10-7--
B----------------------------------------------------
G----------------------------------------------------
D----------------------------------------------------
A----------------------------------------------------
E----------------------------------------------------]
! два раза
[--7-5-3-5-3-0-
--------------
--------------
--------------
--------------
--------------]
Документ
Категория
Ноты, аккорды
Просмотров
7
Размер файла
1 Кб
Теги
pasa, орла, поле, виктор, condor, зинчук
1/--страниц
Пожаловаться на содержимое документа