close

Вход

Забыли?

вход по аккаунту

?

Зинчук Виктор - Зеленые Рукава

код для вставкиСкачать
Зеленые Рукава
[E---------------------------------------------
H--------5-6-5--------------------------------
G--2-5-7-------7-4-0--2-4-5-2-2--1--2-4-1-----
D-----------------------------------------2---
A---------------------------------------------
E---------------------------------------------
E---------------------------------------------
H--------5-6-5--------------------------------
G--2-5-7-------7-4-0--2-4-5-4-2-1---1-2-2-2---
D---------------------------------4-----------
A---------------------------------------------
E---------------------------------------------]
!Я не уверен, но возможно, (может быть)
!В. Зинчук играет это произведение на пол тона
!выше. Тогда это будет выглядеть следующим образом...
[E--------------------------------------------
H---------6-7-6------------------------------
G--3-6-8--------8-5-1--3-5-6-3-3--2-3-5-2----
D-----------------------------------------3--
A--------------------------------------------
E--------------------------------------------
E--------------------------------------------
H---------6-7-6------------------------------
G--3-6-8--------8-5-1--3-5-6-5-3-2-0-2-3-3-3-
D--------------------------------------------
A--------------------------------------------
E--------------------------------------------]
Документ
Категория
Ноты, аккорды
Просмотров
13
Размер файла
1 Кб
Теги
виктор, рукава, зелёные, зинчук
1/--страниц
Пожаловаться на содержимое документа