close

Вход

Забыли?

вход по аккаунту

?

Зинчук Виктор - Лолита

код для вставкиСкачать
Лолита
!Вcтyплeниe: (Aккoмпaнeмeнт игpaeт чтo-тo вpoдe aккopдa <Am> в VII пoзиции,
!тex ктo нe знaeт, oн выглядит тaк:
[E|-8------(пoмyтитe чтo нибyдь c apпeджиo и вcё бyдeт клaccнo)
H|-10-----------------------------------------------------|
G|-9------------------------------------------------------|
D|-7------------------------------------------------------|
A|-x------------------------------------------------------|
E|-x------------------------------------------------------|
E|--0-0-5-7-8-5--10----|--10-10-8-7-5---------------------|
H|------------------6--|--------------8-6-5---------------|
G|---------------------|--------------------5-------------|
D|---------------------|----------------------------------|
A|---------------------|----------------------------------|
E|---------------------|----------------------------------|]
! tremolo
[E|--8-8-7-5------------|----------------(0-0-0-0-0-0-0)---||
H|----------8-6-5------|---5-5-5-5-5-5---5-5-5-5-5-5-5----||
G|----------------7-4--|----------------------------------||
D|---------------------|----------------------------------||
A|---------------------|----------------------------------||
E|---------------------|----------------------------------||]
!И пoexaли...
[E||--0-0-5-7-8-5-/10----|--10-10-8-7-5---------------------|
H||------------------6--|--------------8-6-5h6p5-----------|
G||-*-------------------|------------------------5---------|
D||-*-------------------|----------------------------------|
A||---------------------|----------------------------------|
E||---------------------|----------------------------------|
E|--8-8-7-5------------|--7-7-5---------------------------||
H|----------8-6-5------|--------8-6-5---------------------||
G|----------------7-4--|--------------5-7---------------*-||
D|---------------------|------------------7-------------*-||
A|---------------------|----------------------------------||
E|---------------------|----------------------------------||
E||--5-5-5--------------|--5-5-8-7-5-0---------------------|
H||--------8-6---5-6-8--|--------------1-------------------|
G||-*----------7--------|-------------(5)------------------|
D||-*-------------------|----------------------------------|
A||---------------------|----------------------------------|
E||---------------------|----------------------------------|]
! (gliss)
[E|-0-5--5-5-5--5-5-4-5-|--7-------------------------------||
H|---------------------|----6-5h6p5-(\\-/)----------------||
G|---------------------|-----------7p5p4h5--------------*-||
D|---------------------|-------------------7-(7)--------*-||
A|---------------------|----------------------------------||
E|---------------------|----------------------------------||]
!Тo, чтo в cкoбкax мoжнo и нe игpaть.
!Удaчи!
-
!Вступление: (Аккомпанемент играет что-то вроде аккорда <Am> в VII позиции,
!тех кто не знает, он выглядит так:
[E|-8------(помутите что нибудь с арпеджио, и всё будет классно)
H|-10------------------------------------------------------|
G|-9-------------------------------------------------------|
D|-7-------------------------------------------------------|
A|-x-------------------------------------------------------|
E|-x-------------------------------------------------------|
E|--0-0-5-7-8-5--10-----|--10-10-8-7-5---------------------|
H|------------------6---|--------------8-6-5---------------|
G|----------------------|--------------------5-------------|
D|----------------------|----------------------------------|
A|----------------------|----------------------------------|
E|----------------------|----------------------------------|]
! tremolo
[E|--8-8-7-5-------------|---------------------------------||
H|----------8-6-5-------|---5-5-5-5-5-5---5-5-5-5-5-5-5---||
G|----------------7-4---|---------------------------------||
D|----------------------|---------------------------------||
A|----------------------|---------------------------------||
E|----------------------|---------------------------------||]
!И поехали...
[E||--0-0-5-7-8-5-/10----|--10-10-8-7-5---------------------|
H||------------------6--|--------------8-6-5h6p5-----------|
G||-*-------------------|------------------------5---------|
D||-*-------------------|----------------------------------|
A||---------------------|----------------------------------|
E||---------------------|----------------------------------|
E|--8-8-7-5-------------|--7-7-5--------------------------||
H|----------8-6-5-------|--------8-6-5--------------------||
G|----------------7-4---|--------------5-7--------------*-||
D|----------------------|------------------7------------*-||
A|----------------------|---------------------------------||
E|----------------------|---------------------------------||
E||--5-5-5--------------|--5-5-8-7-5-0---------------------|
H||--------8-6---5-6-8--|--------------1-------------------|
G||-*----------7--------|-------------(5)------------------|
D||-*-------------------|----------------------------------|
A||---------------------|----------------------------------|
E||---------------------|----------------------------------|
E|-0-5--5-5-5--5-5-4-5--|--7---0-0-1-0h1p0----------------||
H|----------------------|------------------3-1-0----------||
G|----------------------|------------------------2-2----*-||
D|----------------------|-------------------------------*-||
A|----------------------|---------------------------------||
E|----------------------|---------------------------------||]
!Solo (электр. гитара):
[E|--------5---------------------------|--------5--------------|
H|------5---8p5---------A.H.----------|------5---8---5~~~-----|
G|--7b9---------7-5-7-5-7---7p6p5-----|--7b9-------7----------|
D|-------------------------------7p5--|-----------------------|
A|------------------------------------|-----------------------|
E|------------------------------------|-----------------------|
E|--0-5-7-8-/10-8-7---|---4h5p4---------------------------|
H|-(5)----------------|---------5-------------------------|
G|--------------------|-----------7-4-5-------------------|
D|--------------------|-----------------------------------|
A|--------------------|-----------------------------------|
E|--------------------|-----------------------------------|
E|-----------------------------|--------------------------|
H|-----------------------------|--------------------------|
G|-------------------------5~~~|-------------------4~~----|
D|---------------------5h7-----|------------5--5h7--------|
A|---------3---3h5--7----------|-----3--5/7---------------|
E|-(0h)3h5---------------------|--3h5---------------------|
E|---------------------8--10-8-10--|--10b12r10p8---8-------|
H|-------------8--8h10-------------|------------------10~~~|
G|------5--7/9---------------------|-------------9---------|
D|--5h7----------------------------|-----------------------|
A|---------------------------------|-----------------------|
E|---------------------------------|-----------------------|
E|--12p8----8-12h8--/13----|--10p7---7-10p7---/12--------|
H|-------10----------------|-------8---------------------|
G|-------------------------|-----------------------------|
D|-------------------------|-----------------------------|
A|-------------------------|-----------------------------|
E|-------------------------|-----------------------------|
E|--8-8-7h8p7-5------------|-7-7-5h7p5-------------------|
H|--------------8-6-5------|-----------8-6-5-------------|
G|--------------------7~~--|-----------------7-/9--------|
D|-------------------------|-----------------------------|
A|-------------------------|-----------------------------|
E|-------------------------|-----------------------------|
E|-8h12p8---------8-12p8--13p10---13p10----13------------|
H|--------10---10---------------10------10----10----------|
G|-----------9-------------------------------------------|
D|-------------------------------------------------------|
A|-------------------------------------------------------|
E|-------------------------------------------------------|
E|--7h10p7-------7-10p7--12p8---12p8---12----------------|
H|---------8---8--------------8------8----8--------------|
G|-----------7-------------------------------------------|
D|-------------------------------------------------------|
A|-------------------------------------------------------|
E|-------------------------------------------------------|
E|--8-8-7h8p7-5------------|-7-7-5h7p5-------------------|
H|--------------8-6-5------|-----------8-6-5-------------|
G|--------------------7~~--|-----------------7-5---------|
D|-------------------------|-----------------------------|
A|-------------------------|-----------------------------|
E|-------------------------|-----------------------------|
E|--17p12----------------12-13p10----13p10----13---------|
H|--------13----13----13----------10-------10----10------|
G|-----------14----14------------------------------------|
D|-------------------------------------------------------|
A|-------------------------------------------------------|
E|-------------------------------------------------------|
E|--15p10----------------10-12p8----12p8----12-----------|
H|--------12----12----12---------8-------8-----8---------|
G|-----------12----12------------------------------------|
D|-------------------------------------------------------|
A|-------------------------------------------------------|
E|-------------------------------------------------------|
E|--13p8----------------8-10p7---10p7---10---------------|
H|-------10----10----10--------6------6----6-------------|
G|----------10----10-------------------------------------|
D|-------------------------------------------------------|
A|-------------------------------------------------------|
E|-------------------------------------------------------|
E|--12p7----------------------|-/8-7-5--------------------|
H|-------9---9---9/12--12/10--|--------8-6----------------|
G|---------9---9--------------|---------------------------|
D|----------------------------|---------------------------|
A|----------------------------|---------------------------|
E|----------------------------|---------------------------|
E|--5h8p5-7h5-7p5-------------|---------------------------|
H|-----------------8-6-6/8----|---------------------------|
G|----------------------------|---------------------------|
D|----------------------------|---------------------------|
A|----------------------------|---------------------------|
E|----------------------------|---------------------------|]
-
[E||----------------------|--7----8--------------|--10------------------|
B||--------------10------|------------10--------|----------------------|
G||--9------9------------|----------------------|------------10--------|
D||----------------------|----------------------|----------------------|
A||----------------------|----------------------|----------------------|
E||----------------------|----------------------|----------------------|
--------------10------|--8----7--------------|----------------------|
--8------8------------|------------10--------|--8-------------------|
----------------------|----------------------|-------10--------9----|
----------------------|----------------------|----------------------|
----------------------|----------------------|----------------------|
----------------------|----------------------|----------------------|
--8------8----7------|--5-------------------|--------------------|
---------------------|-------8----6----5----|--------------------|
---------------------|----------------------|--9--------7--------|
---------------------|----------------------|--------------------|
---------------------|----------------------|--------------------|
---------------------|----------------------|--------------------|
---------------------|
---------------------|
--9----9--------9----|
---------------------|
---------------------|
---------------------|
---------------------------------------------------------------------------|
---------------------------------------------------------------------------|
--9--------9-9-9-9-9-9-9-9-9-9-9-9-9-9-9-9-9-9-9-9-9-9-9-9-9-9-9-9-9-9-9-9-|
---------------------------------------------------------------------------|
---------------------------------------------------------------------------|
---------------------------------------------------------------------------|]
Документ
Категория
Ноты, аккорды
Просмотров
27
Размер файла
13 Кб
Теги
лолита, виктор, зинчук
1/--страниц
Пожаловаться на содержимое документа