close

Вход

Забыли?

вход по аккаунту

?

Зинчук Виктор - Придорожное кафе

код для вставкиСкачать
Пpидopoжнoe кaфe
[E--------------------------------
H--------------------------------
G----9-11-12--11-9-7--- 11-9----- } 2 paзa
D-9-------------------9----------
A--------------------------------
E--------------------------------
E------------------------------------
H---10-12-13--12-13-15-13--12-10-12--
G-9----------------------------------
D------------------------------------
A------------------------------------
E------------------------------------
E--------------------------------
H--------------------------------
G----9-11-12--11-9-7---11-9------
D-9-------------------9----------
A--------------------------------
E--------------------------------
E-----------------------------------------
H-12-12-10-10-8-8-7-8-9-8-----------------
G-----------------------------------------
D-----------------------------------------
A-----------------------------------------
E-----------------------------------------]
-
[E--------------------------------
H--------------------------------
G----9-11-12~-11-9-7~--9/11/9-9~- } 2 раза
D-9-------------------9----------
A--------------------------------
E--------------------------------
E------------------------------------
H---10-12-13~-12-13-15-13~-12-10-12~-
G-9----------------------------------
D------------------------------------
A------------------------------------
E------------------------------------
E--------------------------------
H--------------------------------
G----9-11-12~-11-9-7~--9/11/9-9~-
D-9-------------------9----------
A--------------------------------
E--------------------------------
E-----------------------------------------------------
H-12-12-----------------------------------------------
G-------14-14--12-12-11--11-9-12~-10-9-7~---9/11/9-9~-
D-----------------------------------------9-----------
A-----------------------------------------------------
E-----------------------------------------------------]
Документ
Категория
Ноты, аккорды
Просмотров
16
Размер файла
2 Кб
Теги
придорожной, виктор, кафе, зинчук
1/--страниц
Пожаловаться на содержимое документа