close

Вход

Забыли?

вход по аккаунту

?

Кино - Бездельник #1

код для вставкиСкачать
*45* (1982)
Бездельник #1
> Am Em Am G
Нет меня дома целыми днями:
>C G F G
Занят безделье, играю словами
> Am Em Am G
Каждое утро снова жизнь свою начинаю
>C G F G
И ни черта ни в чем не понимаю.
>C Fm C
Я, лишь начнется новый день,
>C G F
Хожу, отбрасываю тень
> G
С лицом нахала.
> C Fm C
Наступит вечер, я опять
> C G F
Отправлюсь спать, чтоб завтра встать
> G
И все сначала.
Ноги уносят мои руки и туловище,
И голова отправляется следом.
Словно с похмелья, шагаю по улице я,
Мозг переполнен сумбуром и бредом.
Все говорят, что надо кем-то мне становиться,
А я хотел бы остаться собой.
Мне стало трудно теперь просто разозлиться.
И я иду, поглощенный толпой.
-
!Вступление
! Тут вступaет вторaя гитaрa нa октaву выше.
||--------------1^3^1-0---5-3-------||--------------1^3^1-0---5-3----------
||----1-0-1-0-1---------3-----6-5-3-||----1-0-1-0-1---------3-----6-5-3----
||----2-0-2-0-2---------------------||----2-0-2-0-2------------------------
||----------------------------------||-------------------------------------
||-0--------------------------------||-0-----------------------------------
||----------------------------------||-------------------------------------
!Дaлее пaртии чуть-чуть рaзличaются.
|---5-3-5-----------5-3-5--------3----|---5-3-5-----------5-3-5--------3----|
|-----------5-3-5--------------3---3--|-----------5-3-5--------------3---3--|
|----------------------------0--------|----------------------------0--------|
|-------------------------------------|-------------------------------------|
|-0-------0-------0-------------------|-0-------0-------0-------------------|
|-------------------------------------|-------------------------------------|
| | |
| Здесь ничего не перепутaно! | |
| Они действительно игрaют рaзное. | |
|----------17-15-17-------------------|---17-15-17-------17-15-17--15-15----|
|--17-15-17--------17-15-17--15-15----|-----------17-15-17------------------|
|-------------------------------------|-------------------------------------|
|-------------------------------------|-------------------------------------|
|-------------------------------------|-------------------------------------|
|-------------------------------------|-------------------------------------|
-
1|-2-2-2--2--2-2--2-2--2-2-2--2-2--0----0--0--0-0----------------------------
2|-3-3-3--3--5-3--5-3--5-3-3--5-3--2----2--3--3-2----------------------------
3|-2-2-2--2--2-2--2-2--2-2-2--2-2--2----2--2--2-2----------------------------
4|-4-4-4--4--4-4--4-4--4-4-4--4-4--2----2--2--2-2----------------------------
5|-2-2-2--2--2-2--2-2--2-2-2--2-2--0----0--0--0-0----------------------------
6|---------------------------------------------------------------------------
1|-2-2-2--2--2-2--2-2--2-2-2--2-2---/5--3--0^3-------------------------------
2|-3-3-3--3--5-3--5-3--5-3-3--5-3---/5--3--0^3--3/5-3------------------------
3|-2-2-2--2--2-2--2-2--2-2-2--2-2---------------2/4-2------------------------
4|-4-4-4--4--4-4--4-4--4-4-4--4-4--------------------------------------------
5|-2-2-2--2--2-2--2-2--2-2-2--2-2--------------------------------------------
6|---------------------------------------------------------------------------
> Am Em Am G
Нет меня дома целыми днями:
>C G F G
Занят безделье, играю словами
> Am Em Am G
Каждое утро снова жизнь свою начинаю
>C G F G
И ни черта ни в чем не понимаю.
> C Fm C
Я, лишь начнется новый день,
> C G F
Хожу, отбрасываю тень
> G
С лицом нахала.
> C Fm C
Наступит вечер, я опять
> C G F
Отправлюсь спать, чтоб завтра встать
> G
И все сначала.
Ноги уносят мои руки и туловище,
И голова отправляется следом.
Словно с похмелья, шагаю по улице я,
Мозг переполнен сумбуром и бредом.
Все говорят, что надо кем-то мне становиться,
А я хотел бы остаться собой.
Мне стало трудно теперь просто разозлиться.
И я иду, поглощенный толпой.
Документ
Категория
Ноты, аккорды
Просмотров
3
Размер файла
5 Кб
Теги
Кино, бездельник
1/--страниц
Пожаловаться на содержимое документа