close

Вход

Забыли?

вход по аккаунту

?

Кино - Бездельник #2

код для вставкиСкачать
*45* (1982)
Бездельник #2
>Hm A
Гуляю.
>D A
Я один гуляю.
>Hm A Cm# Fm#
Что дальше делать, я не знаю.
>Hm A
Нет дома.
>D A
Никого нет дома.
>Hm A Cm# Fm# Cm# Fm#
Я лишний, словно куча лома, у-у.
> Hm A
Я бездельник, о-о, мама, мама,
> Cm# Fm#
Я бездельник, у-у...
> Hm A
Я бездельник, о-о, мама, мама. <Hm A>
В толпе я
Как иголка в сене.
Я снова человек без цели.
Болтаюсь,
Целый день гуляю.
Не знаю, я ничего не знаю, у-у.
-
Verse:<Am Em Am G C G F CG>
Chorus:<C Fm C G-C-F G>
-
!Intro
! Repeat 3 times
1|-2-2-2--2--2-2--2-2--2-2-2--2-2--0----0--0--0-0----------------------------
2|-3-3-3--3--5-3--5-3--5-3-3--5-3--2----2--3--3-2----------------------------
3|-2-2-2--2--2-2--2-2--2-2-2--2-2--2----2--2--2-2----------------------------
4|-4-4-4--4--4-4--4-4--4-4-4--4-4--2----2--2--2-2----------------------------
5|-2-2-2--2--2-2--2-2--2-2-2--2-2--0----0--0--0-0----------------------------
6|---------------------------------------------------------------------------
1|-2-2-2--2--2-2--2-2--2-2-2--2-2---/5--3--0^3-------------------------------
2|-3-3-3--3--5-3--5-3--5-3-3--5-3---/5--3--0^3--3/5-3------------------------
3|-2-2-2--2--2-2--2-2--2-2-2--2-2---------------2/4-2------------------------
4|-4-4-4--4--4-4--4-4--4-4-4--4-4--------------------------------------------
5|-2-2-2--2--2-2--2-2--2-2-2--2-2--------------------------------------------
6|---------------------------------------------------------------------------
-
1|-2-2-2--2--2-2--2-2--2-2-2--2-2--0----0--0--0-0---------------------
2|-3-3-3--3--5-3--5-3--5-3-3--5-3--2----2--3--3-2---------------------
3|-2-2-2--2--2-2--2-2--2-2-2--2-2--2----2--2--2-2---------------------
4|-4-4-4--4--4-4--4-4--4-4-4--4-4--2----2--2--2-2---------------------
5|-2-2-2--2--2-2--2-2--2-2-2--2-2--0----0--0--0-0---------------------
6|--------------------------------------------------------------------
1|-2-2-2--2--2-2--2-2--2-2-2--2-2---/5--3--0^3------------------------
2|-3-3-3--3--5-3--5-3--5-3-3--5-3---/5--3--0^3--3/5-3-----------------
3|-2-2-2--2--2-2--2-2--2-2-2--2-2---------------2/4-2-----------------
4|-4-4-4--4--4-4--4-4--4-4-4--4-4-------------------------------------
5|-2-2-2--2--2-2--2-2--2-2-2--2-2-------------------------------------
6|--------------------------------------------------------------------
>Hm A
Гуляю.
>D A
Я один гуляю.
>Hm A Cm# Fm#
Что дальше делать, я не знаю.
>Hm A
Нет дома.
>D A
Никого нет дома.
>Hm A Cm# Fm# Cm# Fm#
Я лишний, словно куча лома, у-у.
> Hm A
Я бездельник, о-о, мама, мама,
> Cm# Fm#
Я бездельник, у-у...
> Hm A
Я бездельник, о-о, мама, мама.
>Hm A
В толпе я
Как иголка в сене.
Я снова человек без цели.
Болтаюсь,
Целый день гуляю.
Не знаю, я ничего не знаю, у-у.
Документ
Категория
Ноты, аккорды
Просмотров
3
Размер файла
3 Кб
Теги
Кино, бездельник
1/--страниц
Пожаловаться на содержимое документа