close

Вход

Забыли?

вход по аккаунту

?

Кино - Дальше действовать будем мы

код для вставкиСкачать
*ГРУППА КРОВИ* (1987)
Дальше действовать будем мы
> Am G Am G
(1)Мы хотим видеть дальше, чем окна дома напротив,
> Am F Em
Мы хотим жить, мы живучи, как кошки.
> Am G Am G
И вот мы пришли заявить о своих правах: "Да!"
> Am F Em
Слышишь шелест плащей - это мы...
>C G Am D
Припев:Дальше действовать будем мы!
(2)Мы родились в тесных квартирах новых районов,
Мы потеряли невинность в боях за любовь.
Нам уже стали тесны одежды,
Сшитые вами для нас одежды,
И вот мы пришли сказать вам о том, что дальше...
Припев:Дальше действовать будем мы!
-
[e||-------------------------------------------------||
B||-------------------------------------------------||
G|*------------------------------------------------*||
D|*------------------------------------------------*||
A||--0--0--2--0--3--0--2--3-------------------------||
E||-------------------------------3-3-3-3-3-3-3-3---||]
!(play this 4 times)
!--------------------------------------
!Some time ago I recieved th following.
!--------------------------------------
!I found some more, and it goes like this:
[e|--------------------------------------------------------------------
B|---------------------3-3-3-3-3-------------------------3-3-3-3-3----
G|--2-2-2-2-2-2-4-5-------------5-4-5-5-5-5-5-5-4-5--------------5-4--
D|--------------------------------------------------------------------
A|--------------------------------------------------------------------
E|-------------------------------------------------------------------]
!(play this 2 times)
!Басы к Дальше действовать бyдем мы
[A-0-0-2-0-3-0-2-3--------------------------------------------------------
E-----------------3-3-3-3-3-3-3-3-3-3-3-3--------------------------------]
} 2 pаза
[A-0-0-2-0-3-0-2-3--------------------------------------------------------
E-----------------1-1-1-1-1-1-1-1-1-1-1-1-0-0-2-0-3-0-2-3-0-0-2-0-3-0-2-3]
1|--------------------------------------------------------
2|--------------1-1-1-1-3-1-0--1-1-1-1-1-1-0-3-3-3-3-3-1-0
3|2-2-2-2-2-2-4-------------------------------------------
!^ струны
-
>Am G Am G
(1)Мы хотим видеть дальше, чем окна дома напротив,
>Am F Em
Мы хотим жить, мы живучи, как кошки.
И вот мы пришли заявить о своих правах: "Да!"
Слышишь шелест плащей - это мы...
! Riff 1
>C G Am D
Припев:Дальше действовать будем мы! } 4 раза
(2)Мы родились в тесных квартирах новых районов,
Мы потеряли невинность в боях за любовь.
Нам уже стали тесны одежды,
Сшитые вами для нас одежды,
И вот мы пришли сказать вам о том, что дальше...
!Припев
!Конец
Riff 1:5)-5--5-3-0-5---5-5-5-3-2-
Документ
Категория
Ноты, аккорды
Просмотров
13
Размер файла
3 Кб
Теги
Кино, действовать, дальше
1/--страниц
Пожаловаться на содержимое документа