close

Вход

Забыли?

вход по аккаунту

?

Кино - Звезда по имени Солнце

код для вставкиСкачать
*ЗВЕЗДА ПО ИМЕНИ "СОЛНЦЕ"* (1988)
Звезда по имени "солнце"
> Am
(1)Белый снег, серый лед,
> C
На растрескавшейся земле.
> Dm
Одеялом лоскутным на ней -
>G
Город в дорожной петле.
> Am
А над городом плывут облака,
> C
Закрывая небесный свет.
> Dm
А над городом - желтый дым,
>G
Городу две тысячи лет,
> Dm
Прожитых под светом Звезды
> Am
По имени Солнце...
(2)И две тысячи лет - война,
Война без особых причин.
Война - дело молодых,
Лекарство против морщин.
Красная, красная кровь -
Через час уже просто земля,
Через два на ней цветы и трава,
Через три она снова жива
И согрета лучами Звезды
По имени Солнце...
(3)И мы знаем, что так было всегда,
Что Судьбою больше любим,
Кто живет по законам другим
И кому умирать молодым.
Он не помнит слово "да" и слово "нет",
Он не помнит ни чинов, ни имен.
И способен дотянуться до звезд,
Не считая, что это сон,
И упасть, опаленным Звездой
По имени Солнце...
-
!Обозначения:
!Интро:
!dP uI dp(cl) uI dP uI dP(cl) u
!Сразу же, без сбивания с такта, куплет:
!dI(cl) u dP uI dI(cl) uI dP uI dI(cl) u dP uI dI(cl) uI dP uI
Бе-----лый-снег--------------------се-----рый-лед
!и т.д....
!Начиная с третьего куплета, игра идет чуть сложнее:
!dI(cl) о u о dP u dI uI dI(cl) о uI о dP о uI о dI(cl) о u о dP
Две----------ты---ся----чи-------лет------------вой----------на
-
<Am> [-A-|-A-|-A-|-A-|-A-|-A-]
Белый снег, серый лед, [-|-|-|-|-|-|-|-|-|-|-|-]
> C [-|-|-|-|-|-|-|-|-|-|-|-]
На растрескавшейся земле. [-|-|-|-|-|-|-|-|-|-|-|-]
> Dm [-|-|-|-|-|-|-|-|-|-|-|-]
Одеялом лоскутным на ней - [-|-V-|-V-|-V-|-V-|-V-|-]
> G [1 & 2 & 1 & 2 & 1 & 2]
Город в дорожной петле.
> Am
А над городом плывут облака,
> C
Закрывая небесный свет.
> Dm
А над городом - желтый дым,
> G
Городу две тысячи лет,
> Dm
Прожитых под светом Звезды
> Am
По имени Солнце...
И две тысячи лет - война,
Война без особых причин.
Война - дело молодых,
Лекарство против морщин.
Красная, красная кровь -
Через час уже просто земля,
Через два на ней цветы и трава,
Через три она снова жива
И согрета лучами Звезды
По имени Солнце...
И мы знаем, что так было всегда,
Что Судьбою больше любим,
Кто живет по законам другим
И кому умирать молодым.
Он не помнит слово "да" и слово "нет",
Он не помнит ни чинов, ни имен.
И способен дотянуться до звезд,
Не считая, что это сон,
И упасть, опаленным Звездой
По имени Солнце...
-
!Все партии для одной гитары, так исполнял Цой, когда играл один
!(без Каспаряна, или кого-то ещё).
Вступление:|---------------|-8-------------|-8-------------|-8-------------|-8---|
|-----6---5---6-|-----6---5---6-|-----6---5---6-|-----6---5---6-|-----|
|---------------|---------------|---------------|---------------|-----|
|-7-------------|---------------|---------------|---------------|-----|
|---------------|---------------|---------------|---------------|-----|
|---------------|---------------|---------------|---------------|-----|
!1. Обязатеьно надо сыграть первую ноту, т. к. на студийной записи её
!нет, нона аккустических концертах Цой всегда играл именно так, чтобы
!выделять самый высокий звук (нота "<С>" на 8 аду 1 струны).
!2. Цой всегда играл на закрытых, т. е. на баррэшных аккордах.
!Значит аппликатура здесь будет такая:
>Am C Dm G
|-5--3--5--3|
|-5--5--6--3|
|-5--5--7--4|
|-7--5--7--5|
|-7--3--5--5|
|-5--3--5--3|
>Am
| | | | Белый|
>Am
|снег, серый |лед, На рас-|
>C
|трескавшейся зем|ле. Оде-|
>Dm
|ялом лоскутным на |ней -|
>G
|Город в дорожной пет|ле. А над |
>Am
|городом плывут обла|ка, Закры-|
>C
|вая небесный |свет. А над |
>Dm
|городом - желтый |дым, |
>G
|Городу две тысячи |лет, |
>Dm
|Прожитых под светом Звез|ды По имени |
>Am
|Солнце... | |
Проигрыш:<F6/A>, <D7sus2/A>, <F6/A>, <F6/A>, играется боем [вниз|вверх|вниз|вверх]
|-5---5---5---8-|-5---5---5---8-|-5---5---5---8-|-5---5---5---8-|-5---5-|
|-6---5---6---6-|-6---5---6---6-|-6---5---6---6-|-6---5---6---6-|-6---5-|
|-5---5---5---5-|-5---5---5---5-|-5---5---5---5-|-5---5---5---5-|-5---5-|
|-7---7---7---7-|-7---7---7---7-|-7---7---7---7-|-7---7---7---7-|-7---7-|
|-5---5---5---5-|-5---5---5---5-|-5---5---5---5-|-5---5---5---5-|-5---5-|
|-5---5---5---5-|-5---5---5---5-|-5---5---5---5-|-5---5---5---5-|-5---5-|
| | | | | И две |
>Am
|тысячи лет - вой|на, Вой--|
>C
|на без особых при|чин. Вой|
>Dm
|на - дело моло|дых, Ле-|
>G
|карство против мор|щин. |
>Am
|Красная, красная |кровь - Через |
>C
|час уже просто зем|ля, Через |
>Dm
|два на ней цветы и тра|ва, Через |
>G
|три она снова жи|ва И сог-|
>Dm
|рета лучами Звез|ды По имени |
>Am
|Солнце... | |
!проигрыш
| | | | | И мы |
>Am
|знаем, что так было всег|да, Что Судь-|
>C
|бою больше лю|бим, Кто жи-|
>Dm
|вет по законам дру|гим И ко-|
>G
|му умирать моло|дым. Он не |
>Am
|помнит слово "да" и слово |"нет", Он не|
>C
|помнит ни чинов, ни и|мен. И спо-|
>Dm
|собен дотянуться до |звезд, Не счи-|
>G
|тая, что это |сон, И у-|
>Dm
|пасть, опаленным Звез|дой По имени |
>Am
|Солнце... | |
!проигрыш
| | | | |
!<Am>, таким же боем, как и проигрыш.
| | |
!проигрыш
| | | | |.
!Если играть песню обычными аккордами, а не баррэшными, то вступление будет такое
!(транспортированно немного неверно, но так надо):
|-----1---0---1-|-5---1---0---1-|-5---1---0---1-|-5---1---0---1-|-5-------------|
|---------------|---------------|---------------|---------------|---------------|
|-2-------------|---------------|---------------|---------------|---------------|
|---------------|---------------|---------------|---------------|---------------|
|---------------|---------------|---------------|---------------|---------------|
|---------------|---------------|---------------|---------------|---------------|
!а проигрыш такой:
|-1---0---1---5-|-1---0---1---5---|-1---0---1---5-|-1---0---1---5-|-1---0-|
|-1---1---1---3-|-1---1---1---3---|-1---1---1---3-|-1---1---1---3-|-1---1-|
|-2---2---2---5-|-2---2---2---5---|-2---2---2---5-|-2---2---2---5-|-2---2-|
|-0---0---0---3-|-0---0---0---3---|-0---0---0---3-|-0---0---0---3-|-0---0-|
|-0---0---0---0-|-0---0---0-------|-0---0---0---0-|-0---0---0-----|-0---0-|
|---------------|-----------------|---------------|---------------|-------|
-
1|8--7---5---------------------------------5------------------------------------|
2|------------5-------5---5---8--8--8--8------5----5-5-------------------5-----5|
3|---------------7--------------------------------------7--7---7--7--7------7---|
4|------------------------------------------------------------------------------|
5|------------------------------------------------------------------------------|
6|------------------------------------------------------------------------------|
Бе-лый снег, се-рый лёд. На Рас-трес-кав-шей-ся зем-ле. О-де -я-лом лоскутным
на ней
1|-------------------------
2|---------------------5---
3|7--7----7---7----7------7
4|-------------------------
5|-------------------------
6|-------------------------
Го-род в до-рожной пет-ле
!*дальше так-же
А над го-ро-дом плы-вут об-ла-ка За-кры-вая не-бес-ный свет.
А над го-ро-дом жёл-тый дым
Го-ро-ду две ты-ся-чи лет,
!*конец куплета
1|---------------------------------------5------
2|----------------------------------------------
3|--7-7-5-7-----7-7-5-7-----7-7-5-7--------5----
4|--------------------------------------------7-
5|----------------------------------------------
6|----------------------------------------------
Прожитых под светом звезды по имени Солнце
!*для остальных куплетов тоже самое
-
!Бой здесь такой:
!V^*^V^*
!V-вниз
!^-вверх
!*-вниз с приглушением струн
!Аккорды такие <Am>,<C>,<Dm>,<G>
!В оригинале Цой брал эти аккорды с баррэ,
!но можно и без него играть...
-
!Звезду на вступлении играется следующее:
>Dm7'
[-|5-5-5-8|5-5-5-8|5-5-5-8|5-5-5-8|-
-|6-5-6-6|6-5-6-6|6-5-6-6|6-5-6-6|-
-|5-5-5-5|5-5-5-5|5-5-5-5|5-5-5-5|-
-|7-7-7-7|7-7-7-7|7-7-7-7|7-7-7-7|-
-|-------|-------|-------|-------|-
-|-------|-------|-------|-------|-]
!А потом на стандартных аккордах, но на барре.
Документ
Категория
Ноты, аккорды
Просмотров
18
Размер файла
9 Кб
Теги
Кино, солнце, имени, звезда
1/--страниц
Пожаловаться на содержимое документа