close

Вход

Забыли?

вход по аккаунту

?

Кино - Когда твоя девушка больна

код для вставкиСкачать
*ЧЕРНЫЙ АЛЬБОМ* (1990)
Когда твоя девушка больна
>G Em
День как день,
> C D
Только ты почему-то грустишь.
> G Em
И вокруг все поют,
> C D
Только ты один молчишь.
Потерял аппетит
И не хочешь сходить в кино.
Ты идешь в магазин,
Чтобы купить вино.
> C D
Солнце светит, и растет трава,
> G Em D
Но тебе она не нужна.
> C D
Все не так, и все не то,
> G E C D C
Когда твоя девушка больна,
>D G
Когда больна...
Ты идешь в магазин,
Головою поник,
Как будто иссяк
Чистый горный родник.
Она где-то лежит,
Ест мед и пьет аспирин,
И вот ты идешь
На вечеринку один.
Солнце светит, и растет трава,
Но тебе она не нужна.
Все не так, и все не то,
Когда твоя девушка больна.
На вечеринку один,
Когда твоя девушка больна.
-
>G Em
(1)День как день,
> C D
Только ты почему-то грустишь.
И вокруг все поют,
Только ты один молчишь.
Потерял аппетит
И не хочешь сходить в кино.
Ты идешь в магазин,
Чтобы купить вино.
>C D
Припев:Солнце светит, и растет трава,
> G Em
Но тебе она не нужна.
>C D
Все не так, и все не то,
> G Em C D
Когда твоя девушка больна,
> G
Когда больна...
(2)Ты идешь в магазин,
Головою поник,
Как будто иссяк
Чистый горный родник.
Она где-то лежит,
Ест мед и пьет аспирин,
И вот ты идешь
На вечеринку один.
!Припев
-
>G Em C D
(1)День как день, только ты почему-то грустишь
>G Em C D
И вокруг все поют, только ты один молчишь
Потерял аппетит и не хочешь сходить в кино
Ты идёшь в магазин, чтобы купить вино
>C D
Припев:Солнце светит, и растёт трава,
> G Em
Но тебе она не нужна
Всё не так и всё не то,
Когда твоя девушка больна
У-у-у--у--у
Когда твоя девушка больна
(2)Ты идёшь в магазин, головою поник,
Как будто иссяк чистый горный родник
Она где-то лежит, ест мёд и пьёт аспирин
И вот ты идёшь на вечеринку один
Припев:Солнце светит, и растёт трава,
Но тебе она не нужна
Всё не так и всё не то,
Когда твоя девушка больна
У-у-у--у--у
Когда твоя девушка больна
-
1|-3---2-3---2-3---2-3-2---0--------------------------------------------------
2|-3---3-3---3-3---3-3-3---1--------------------------------------------------
3|-0---2-0---2-0---2-0-2---0--------------------------------------------------
4|-0---0-0---0-0---0-0-0---2------5-4-2-0-------------------2-0-------------2-
5|-------------------------3--3-3---------3-2---0^2-----3-3-----3-2-0-2-0^2---
6|-3-----3-----3-----3------------------------------3-------------------------
1|------------------------------0-----0---------2-----2-----3-2---3----------
2|----------------------------1-----1-----1---3-----3-----3-3-3---3----------
3|--------------------------0-----0-----0---2-----2-----2---0-2---0-ETC.-----
4|-----5-4-2-0----------------------------------------------0-0---0----------
5|-3-3---------3-2---0^2-----------------------------------------------------
6|-----------------------3----------------------------------3-----3----------
-
Бой:VVV^V^
Вступление:< G G>
4|-5-05-05-|-0-5-0---|
5|---------|---------|
6|---------|---------|
> C D7 G Em
4|-------5-|-4-2-0---|---------|---------|
5|---3-3---|-------3-|-2----32-|---------|
6|---------|---------|---------|-3-------|
> C D7 G Em
4|-------2-|-0-------|---------|-2-------|
5|---3-3---|---3-2-0-|-2----02-|---------|
6|---------|---------|---------|---------|
> C D7 G G
4|-5--4--2-|-0-----4-|-5-05-05-|-0-5-0---|
5|---------|---------|---------|---------|
6|---------|---------|---------|---------|
> G Em C D7
(1)День как день, только ты почему-то грустишь,
И вокруг все поют, только ты один молчишь.
Потерял аппетит и не хочешь сходить в кино,
Ты идёшь в магазин, чтобы купить вино.
> C D7 G Em
Припев:Солнце светит и растёт трава, но тебе она не нужна.
Всё не так и всё не то, когда твоя девушка больна.
У-у-у-у, когда твоя девушка больна.
> C D7 G
У-у-у-у, когда больна.
> G G
4|-5-05-05-|-0-5-0---|
5|---------|---------|
6|---------|---------|
(2)Ты идёшь в магазин, головою поник,
Как будто иссяк чистый горный родник.
Она где-то лежит, ест мёд и пьёт аспирин.
И вот ты идёшь на вечеринку один.
Солнце светит и растёт трава, но тебе она не нужна.
Всё не так и всё не то, когда твоя девушка больна.
На вечеринку один, когда твоя девушка больна. } 3 раза
...когда твоя девушка больна. } 3 раза
Проигрыш:|-<C>-|-<D7>-|-<G>-|-<Em>-|
|-<C>-|-<D7>-|-<G>-|-<Em>-|
|-<C>-|-<D7>-|
> G G
4|-5-05-05-|-0-5-0---|
5|---------|---------|
6|---------|---------|
> C D7 G Em
4|-------5-|-4-2-0---|---------|---------| \
5|---3-3---|-------3-|-2----32-|---------| \
6|---------|---------|---------|-3-------| \
\
> C D7 G Em \
4|-------2-|-0-------|---------|-2-------| \
5|---3-3---|---3-2-0-|-2----02-|---------| \
6|---------|---------|---------|---------| \
\ 2
> C D7 G Em / раза
4|-------5-|-4-2-0---|---------|-5-------| /
5|---3-3---|-------3-|-2----02-|---------| /
6|---------|---------|---------|---------| /
/
> C D7 G Em /
4|-5--4--2-|-0-----4-|---------|---------| /
5|---------|---------|---------|---------| /
6|---------|---------|---------|---------| /
Документ
Категория
Ноты, аккорды
Просмотров
11
Размер файла
6 Кб
Теги
твоя, больно, Кино, девушка
1/--страниц
Пожаловаться на содержимое документа