close

Вход

Забыли?

вход по аккаунту

?

Кино - Красно-желтые дни

код для вставкиСкачать
*ЧЕРНЫЙ АЛЬБОМ* (1990)
Красно-желтые дни
!Пеpед встyплением:
[D|--------------------3--2-----3-2-3--------|
A|--0-----0-----3-----------5------------3--|
E|-----0-----3-----3------------------3-----|]
!встyпление+Соло в кyплете:
|--------------------------------|-----------------0--------------|
|-----------------1-----0--------|-----1-----1-----------3-----1--|
|----2-----2------------------2--|--0-----0-----0-----0-----0-----|
|-2-----2-----2-----2-----2------|--------------------------------|
|--------------------------------|--------------------------------|
|--------------------------------|--------------------------------|
|-----------------5-----3------------8------8~~~~~----------------|
|-----6-----6---------------------8------8~~~~~~~~----------------|
|--5-----5-----5-----5-----5--------------------------------------|
|-----------------------------------------------------------------|
|-----------------------------------------------------------------|
|-----------------------------------------------------------------|
> Hm G
Застоялся мой поезд в депо.
>A G A
Снова я уезжаю. Пора...
> Hm G
На пороге ветер заждался меня.
>A G A
На пороге осень - моя сестра.
> Hm Fm# Hm
После красно-желтых дней
> D A D
Начнется и кончится зима.
> G Fm# Em
Горе ты мое от ума,
> D A D
Не печалься, гляди веселей.
И я вернусь домой
Со щитом, а, может быть, на щите,
В серебре, а, может быть, в нищете,
Но как можно скорей.
Расскажи мне о тех, кто устал
От безжалостных уличных драм
И о храме из разбитых сердец
И о тех, кто идет в этот храм.
После красно-желтых дней
Начнется и кончится зима.
Горе ты мое от ума,
Не печалься, гляди веселей.
И я вернусь домой
Со щитом, а, может быть, на щите,
В серебре, а, может быть, в нищете,
Но как можно скорей.
А мне приснилось: миром правит любовь,
А мне приснилось: миром правит мечта.
И над этим прекрасно горит звезда,
Я проснулся и понял - беда...
После красно-желтых дней
Начнется и кончится зима.
Горе ты мое от ума,
Не печалься, гляди веселей.
И я вернусь домой
Со щитом, а, может быть, на щите,
В серебре, а, может быть, в нищете,
Но как можно скорей.
-
>Hm G
(1)Застоялся мой поезд в депо.
>A G A
Снова я уезжаю. Пора...
На пороге ветер заждался меня.
На пороге осень - моя сестра.
>Hm Fm# Hm
Припев:После красно-желтых дней
> D A D
Начнется и кончится зима.
>G Fm# Em
Горе ты мое от ума,
> D A D
Не печалься, гляди веселей.
И я вернусь домой
Со щитом, а, может быть, на щите,
В серебре, а, может быть, в нищете,
Но как можно скорей.
(2)Расскажи мне о тех, кто устал
От безжалостных уличных драм
И о храме из разбитых сердец
И о тех, кто идет в этот храм.
!Припев
(3)А мне приснилось: миром правит любовь,
А мне приснилось: миром правит мечта.
И над этим прекрасно горит звезда,
Я проснулся и понял - беда...
!Припев
-
Соло:1)--------------------0-5-0-5-0-7-0-7-0-5-----------------------
2)0-5-0-5-0-7-0-7-0-5---------------------0-7-0-7-0-9-0-9-0-7---
3)--------------------------------------------------------------
Документ
Категория
Ноты, аккорды
Просмотров
6
Размер файла
3 Кб
Теги
красной, желтые, Кино
1/--страниц
Пожаловаться на содержимое документа