close

Вход

Забыли?

вход по аккаунту

?

Кино - Пачка сигарет

код для вставкиСкачать
*ЗВЕЗДА ПО ИМЕНИ "СОЛНЦЕ"* (1988)
Пачка сигарет
> Em Am C Ds Em
Я сижу и смотрю в чужое небо из чужого окна
> Am C Ds Em
И не вижу ни одной знакомой звезды.
> Am C Ds Em
Я ходил по всем дорогам и туда, и сюда,
> Am C Ds Em
Обернулся - и не смог разглядеть следы.
> Em Am C Ds Em
Но если есть в кармане пачка сигарет,
> Am C Ds Em
Значит все не так уж плохо на сегодняшний день.
> Am C Ds Em
И билет на самолет с серебристым крылом,
> Am C Ds Em
Что, взлетая, оставляет земле лишь тень.
И никто не хотел быть виноватым без вина,
И никто не хотел руками жар загребать,
А без музыки на миру смерть не красна,
А без музыки не хочется пропадать.
Но если есть в кармане пачка сигарет,
Значит все не так уж плохо на сегодняшний день.
И билет на самолет с серебристым крылом,
Что, взлетая, оставляет земле лишь тень.
-
Verse/Chorus:<Em Am C D>
Solo:[E -----7-5------3-0-----5-2-----
B ---------5--------0-3---------
G -4-5-------5--------------5-4-
|1.
E ---7-5-----|-3-0-----5-2-----|
B -------5---|-----0-1---------|
G -4-------5-|-------------5-4-|
|2.
E |---0---------------
B |-5---0---0---------
G |-------0-----------
|-harmonic---...]
-
!TABS:
Вступление:[E|--------7--5----------3--0---------5--2-----------7--5--------3--0------------5--2----------|
B|-0--1-----------1-----------1---3--------1--0-----------0--1--------0--1------------1--0----|
G|--------------------------------------------------------------------------------------------|
D|--------------------------------0------------------------------------------0----------------|
A|--------0----------3---------------------------------0--------3-----------------------------|
E|-----------------------------------------0---------------------------------------------0----|
E|--------7--5----------3--0---------5--2-----------7--5--------3--0------------5--2----------|
B|-0--1-----------1-----------1---3--------1--0-----------0--1--------0--1------------1--0----|
G|--------------------------------------------------------------------------------------------|
D|--------------------------------0------------------------------------------0----------------|
A|--------0----------3---------------------------------0--------3-----------------------------|
E|-----------------------------------------0---------------------------------------------0----|
E|-------5---------3--2----------|
B|-0--1------0--1--------3-------|
G|-------------------------------|
D|-------------------------------|
A|-------0---------3-------------|
E|-------------------------------|]
Куплет (1) Я сижу и смотрю в чужое небо... и куплет (2)... И никто не хотел быть виноватым...
[E|--0-----0----0-----0--0--0-----0--0--0-----------0---------0-----0--0--0-----0----0--2--3---|
B|-----3--0-------3--1--------3--0--------3--3--3-------0-------3--1--------3--0----------3---|
G|--------0----------0-----------0-----------2----------0----------0-----------0----------2---|
D|-------------------------------------------0--------------------------------------------0---|
A|-------------------0-----------3---------------------------------0-----------3--------------|
E|--------0---------------------------------------------0-------------------------------------|
E|--2-----0----7--7--7--0--0--0--0--0--0--0-------------0----0-----0--0--0-----0----0--0------|
B|-----3--0----------------------0-----------3--3--3----0-------3--1--------3--0--------------|
G|--------0----------------------0-----------2----------0----------0-----------0--------------|
D|-------------------------------------------0------------------------------------------------|
A|-------------------0-----------3---------------------------------0-----------3--------------|
E|--------0---------------------------------------------0-------------------------------------|
E|-------3----0----|
B|--3---------0----|
G|--2---------0----|
D|--0--------------|
A|-----------------|
E|------------0----|]
Припев:Но если есть в кармане пачка сигарет...
[E|--0--0--0--5--5--5--0----0------------0--0----0-----0--0--0-----0--0--0--2--3----2-----0----|
B|-----------5--------1--------------3-----0-------3--1--------3--0-----------1-------3--0----|
G|-----------5--------0--------------------0----------0-----------0-----------2----------0----|
D|------------------------------0---------------------------------------------0---------------|
A|-----------0--------3-------------------------------0-----------3---------------------------|
E|-----------------------------------------0---------------------------------------------0----|
E|--0-----0--0--0-----0----0--0--------0---------7--7--7--0--0--0--0--0-----3--0--------------|
B|-----3--1--------3--0----------3--3-------0----------------------0-----3-----0--------------|
G|--------0-----------0----------2----------0----------------------0-----2-----0--------------|
D|-------------------------------0---------------------------------------0--------------------|
A|--------0-----------3--------------------------------0-----------3--------------------------|
E|------------------------------------------0----------------------------------0--------------|]
!Далее следует мелодия из вступления, а потом 2-ой куплет, так же играется как и первый
-
>Em Am C D Em
(1)Я сижу и смотрю в чужое небо из чужого окна
И не вижу ни одной знакомой звезды.
Я ходил по всем дорогам и туда, и сюда,
Обернулся - и не смог разглядеть следы.
Припев:Но если есть в кармане пачка сигарет,
Значит все не так уж плохо на сегодняшний день.
И билет на самолет с серебристым крылом,
Что, взлетая, оставляет земле лишь тень.
(2)И никто не хотел быть виноватым без вина,
И никто не хотел руками жар загребать,
А без музыки на миру смерть не красна,
А без музыки не хочется пропадать.
!Припев
-
> Em Am C D7 Em
(1)Я сижу и смотрю в чужое небо из чужого окна
> Am C D7 Em
И не вижу ни одной знакомой звезды
Я ходил по всем дорогам и туда и сюда
Обернулся и не смог разглядеть следы
Припев:Но если есть в кармане пачка, сигарет
Значит всё не так уж плохо на сегодняшний день
И билет на самолет с серебристым крылом,
Что взлетая оставляет земле лишь тень
(2)И никто не хотел, быть виноватым без вина
И никто не хотел руками жар загребать,
А без музыки на миру смерть не красна,
А без музыки не хочется пропадать
Припев:Но если есть в кармане пачка, сигарет
Значит всё не так уж плохо на сегодняшний день
И билет на самолет с серебристым крылом
Что взлетая оставляет земле лишь тень.
-
Вступление:[e|------------7--5--------3-----------5-----------7--5---------|
b|------------------5--------5-----------7--------------5------|
g|-----4--5------------5--------5-7---------5--4-----------5--|
d|---------------------------------------------------------------|
a|---------------------------------------------------------------|
e|---------------------------------------------------------------|
e|--3-----------5--------------------------------------------------|
b|-----5-----------7-----------------------------------------------|
g|--------5--7--------5--4----------------------------------------|
d|-----------------------------------------------------------------|
a|-----------------------------------------------------------------|
e|-----------------------------------------------------------------|]
!Вступление+
[e|--10-10-10--10-8-7-8-10--10-8-7-8-10--10-8-7-8-10//12-12-12------|
b|---------------------------------------------------------------------------|
e|--12-10-8-10-12--12-10-8-10-12---------------------------------------|
b|---------------------------------------------------------------------------|]
> Em Am C Ds Em
Я сижу и смотрю в чужое небо из чужого окна
> Am C Ds Em
И не вижу ни одной знакомой звезды.
> Am C Ds Em
Я ходил по всем дорогам и туда, и сюда,
> Am C Ds Em
Обернулся - и не смог разглядеть следы.
> Em Am C Ds Em
Hо если есть в кармане пачка сигарет,
> Am C Ds Em
Значит все не так уж плохо на сегодняшний день.
> Am C Ds Em
И билет на самолет с серебристым крылом,
> Am C Ds Em
Что, взлетая, оставляет земле лишь тень.
И никто не хотел быть виноватым без вина,
И никто не хотел руками жар загребать,
А без музыки на миру смерть не красна,
А без музыки не хочется пропадать.
Hо если есть в кармане пачка сигарет,
Значит все не так уж плохо на сегодняшний день.
И билет на самолет с серебристым крылом,
Что, взлетая, оставляет земле лишь тень.
-
!Бой: v_v^
>Em Am C D Em
(1)Я сижу и смотрю в чужое небо из чужого окна
И не вижу ни одной знакомой звезды.
Я ходил по всем дорогам и туда, и сюда,
Обернулся - и не смог разглядеть следы.
Припев:Но если есть в кармане пачка сигарет,
Значит все не так уж плохо на сегодняшний день.
И билет на самолет с серебристым крылом,
Что, взлетая, оставляет земле лишь тень.
(2)И никто не хотел быть виноватым без вина,
И никто не хотел руками жар загребать,
А без музыки на миру смерть не красна,
А без музыки не хочется пропадать.
!Припев
Документ
Категория
Ноты, аккорды
Просмотров
12
Размер файла
10 Кб
Теги
пачка, Кино, сигарет
1/--страниц
Пожаловаться на содержимое документа