close

Вход

Забыли?

вход по аккаунту

?

Кирпичи - Смысл Улыбаца

код для вставкиСкачать
Смысл Улыбаца
INTRO:[E---------------------------------------------------|
B---------------------------------------------------|
G---------------------------------------------------|
D--4-4---4-4--7-7----2-2---4-4---4-3-2--------------|
A--4-4---4-4--7-7----2-2---4-4---4-3-2--------------|
E--2-2---2-2--5-5----0-0---2-2---2-1-0--------------|]
!Ниже следуют - вначале аккорды, а потом текст, который
!нужно петь с этими аккордами.
(1)[E---------------------------------------------------|
B---------------------------------------------------|
G---------------------------------------------------|
D--4-4---4-4--7-7----2-2---4-4---4-3-2--------------|
A--4-4---4-4--7-7----2-2---4-4---4-3-2--------------|
E--2-2---2-2--5-5----0-0---2-2---2-1-0--------------|]
Вот моя могила
Здесь зарыты деньги
Прослезился я
Подсчитав доход
Музыку в копилку
Хочешь быть обманут
Я такой же точно
Смысл улыбаца
[E--------------------------------------|
B--------------------------------------|
G--------------------------------------|
D--4-4-4-4---9-9---8-8---7-7-7-7-------|
A--4-4-4-4---9-9---8-8---7-7-7-7-------|
E--2-2-2-2---7-7---6-6---5-5-5-5-------|]
Никому не нужно
Не имеет смысла
Никогда не сделать так
Я не захочу
[E--------------------------------------|--------------------------------------|
B--------------------------------------|--------------------------------------|
G--------------------------------------|--------------------------------------|
D--7-7-7-7-7-7-7-7--4-4-4-4-4-4-4-4----|--7-7-7-7-7-7-7-7--6-6-6-6-6-6-6-6----|
A--7-7-7-7-7-7-7-7--4-4-4-4-4-4-4-4----|--7-7-7-7-7-7-7-7--6-6-6-6-6-6-6-6----|
E--5-5-5-5-5-5-5-5--2-2-2-2-2-2-2-2----|--5-5-5-5-5-5-5-5--4-4-4-4-4-4-4-4----|]
Никому не нужно
Не имеет смысла
Ничего не будет
Если я закричу
(2)[E---------------------------------------------------|
B---------------------------------------------------|
G---------------------------------------------------|
D---------------------------------------------------|
A--4-4---4-4--7-7----2-2---4-4---4-3-2--------------|
E--2-2---2-2--5-5----0-0---2-2---2-1-0--------------|]
Да и на небе тучи
Плачем по приказу
Обтекай сестра
Музыку на стол
Новая попытка
Желтенькую душу
Расчесать до дырки
Смысл улыбаца
!и дальше повторяется припев...
Документ
Категория
Ноты, аккорды
Просмотров
12
Размер файла
2 Кб
Теги
смысл, улыбаца, кирпичи
1/--страниц
Пожаловаться на содержимое документа