close

Вход

Забыли?

вход по аккаунту

?

Конец Фильма - Юность в сапогах

код для вставкиСкачать
Юность в сапогах
!Это sound-track и сериала "СОЛДАТЫ"
> Am
Здравствуй, небо в облаках,
Здравствуй, юность в сапогах!
> С
Пропади, моя тоска,
> E
Вот он я, привет, войска!
> С
Эх, рельсы-поезда,
> G
Как я попал сюда?
> C E
Здесь не то что на гражданке,
> Am F
На какой-нибудь гражданке,
> C E
Жизнь снаружи и с изнанки
> Am F
Сам попробуй изучи.
> Н7(Am)
Для печали нет причин.
Непросто быть собой,
Когда шагает строй.
Только сердце птицей бьётся,
И ликует, и смеётся,
И ему не удаётся
Под конвоем петь в груди.
Знать бы, что там впереди.
> C E Dm
Где-то течёт река,
> Am G F
Где-то дом, где всё ждут нас назад.
Это не грусть слегка,
Просто ветер щекочет глаза.
Где-то течёт река,
Где-то дом, где всё ждут нас назад.
Это не грусть слегка,
Просто ветер щекочет глаза.
Шаг вперёд и два назад,
Кто бы знал, чему я рад?
Просто сбросил я печаль
Словно голову с плеча.
На стыках рельсов путь,
Виски вбивает пульс.
Ты поймёшь, как будет нужно,
Где предательство, где дружба,
Где карьера, а где служба,
И как сердце безоружно,
Как обманчива наружность,
Сколько звёзд и сколько лычек,
Сколько лиц, личин, опричей,
И как мало в нас различий.
-
>Am
Здравствуй, небо в облаках,
>Am
Здравствуй, юность в сапогах!
>Am
Пропади, моя тоска,
>Am
Вот он я, привет, войска!
>F
Эх, рельсы-поезда,
>G
Как я попал сюда?
>C G
Здесь не то что на гражданке,
>Am F
На какой-нибудь гражданке,
>C F
Жизнь снаружи и с изнанки
>Am F
Сам попробуй изучи.
>Am
Для печали нет причин.
>F
Непросто быть собой,
>G
Когда шагает строй.
>C G
Только сердце птицей бьётся,
>Am F
И ликует, и смеётся,
>C G
И ему не удаётся
>Am F
Под конвоем петь в груди.
>Am
Знать бы, что там впереди.
>C G F
Где-то течёт река,
>C G F
Где-то дом, где всё ждут нас назад.
>C G F
Это не грусть слегка,
>C G F
Просто ветер щекочет глаза.
Где-то течёт река,
Где-то дом, где всё ждут нас назад.
Это не грусть слегка,
Просто ветер щекочет глаза.
Шаг вперёд и два назад,
Кто бы знал, чему я рад?
Просто сбросил я печаль
Словно голову с плеча.
На стыках рельсов путь,
Виски вбивает пульс.
Ты поймёшь, как будет нужно,
Где предательство, где дружба,
Где карьера, а где служба,
И как сердце безоружно,
Как обманчива наружность,
Сколько звёзд и сколько лычек,
Сколько лиц, личин, опричей,
И как мало в нас различий.
-
Уже довольно давно на каком-то форуме
!нашел такую табу (мне она нравится, но
!если что не так - поправьте).
[E---------------------------------
B----------------------------5----
G--7-7-7-5-4h5---7-7-7-5-4h5------
D--------------7------------------
A---------------------------------
E---------------------------------]
-
>Am C
1)------0.------0.-----0.----------0.-----0.-----0.-----
2)----1---1-------1------1-------1---1------1------1----
3)--2.------2-------2------2.--0.------0------0------0.-
4)------------------------------------------------------
5)------------------------------------------------------
6)------------------------------------------------------
>F E
1)------1.------1.-----1.----------0.-----0.-----0.-----
2)----1---1-------1------1-------0---0------0------0----
3)--2.------2-------2------2.--1.------1------1------1.-
!Вот такую тему я нашёл не особо но что то есть!
!Ноты с точкой должны звучать чуть дольше остальных. И на
!них нужно делать небольшой акцент, тобиш ударение.
-
!Основная тема:
!Riff A
1)-----------------------------0-
2)-3-3-3-1-0-1-----3-3-3-1-0-1---
3)-------------2-----------------
4)-------------------------------
5)-------------------------------
6)-------------------------------
!Riff B
1)------------------------
2)-----1---1------------3-
3)---2-------2--------4---
4)-3-----------3----5-----
5)------------------------
6)------------------------
!Riff C
1)-----0-1-0---0-1---0---0-1-0---0-1-
2)-1-3-------3---------3-------3-----
3)-----------------------------------
4)-----------------------------------
5)-----------------------------------
6)-----------------------------------
!<Am> (Riff A)
Здравствуй, небо в облаках,
Здравствуй, юность в сапогах!
Пропади, моя тоска,
Вот он я, привет, войска!
!<F>(Riff B)
Эх, рельсы-поезда,
>G
Как я попал сюда?
!(Riff C) <C Em>
Здесь не то что на гражданке,
>Am F
На какой-нибудь гражданке,
>C Em
Жизнь снаружи и с изнанки
>Am F
Сам попробуй изучи.
!<Am>(Riff A)
Для печали нет причин.
Непросто быть собой,
Когда шагает строй.
Только сердце птицей бьется,
И ликует, и смеется,
И ему не удается
Под конвоем петь в груди.
Знать бы, что там впереди.
>C Em Dm
Где-то течет река,
>Am G F
Где-то дом, где все ждут нас назад.
Это не грусть слегка,
Просто ветер щекочет глаза.
Где-то течет река,
Где-то дом, где все ждут нас назад.
Это не грусть слегка,
Просто ветер щекочет глаза.
Шаг вперед и два назад,
Кто бы знал, чему я рад?
Просто сбросил я печаль
Словно голову с плеча.
На стыках рельсов путь,
Виски вбивает пульс.
Ты поймешь, как будет нужно,
Где предательство, где дружба,
Где карьера, а где служба,
И как сердце безоружно,
Как обманчива наружность,
Сколько звезд и сколько лычек,
Сколько лиц, личин, опричей,
И как мало в нас различий.
-
[e:-5-5-5-3-2-3-0---5-5-5-3-2-3-7-]
!Самое простое что есть... Дальше не знаю
Документ
Категория
Ноты, аккорды
Просмотров
13
Размер файла
6 Кб
Теги
конец, сапогах, фильм, юность
1/--страниц
Пожаловаться на содержимое документа