close

Вход

Забыли?

вход по аккаунту

?

Король и Шут - Воспоминания о былой любви

код для вставкиСкачать
Как в старой сказке (2001), Герои и злодеи (2000)
Воспоминания о былой любви
Проигрыш:<Em Am D C G C Am H>
>Em Am D G
Дремлет за горой мрачный замок мой
>C Am H
Душу мучиет порой царящий в нем покой
Для твоих фантазий страждущий герой
О любви моей живой все образы со мной
> Em C D H G G C
Припев:Я часто вижу страх в смотрящих на меня глазах
> C D G C Am
Ведь суждено уснуть в моих стенах застыть в моих мирах
На сердце от любви горит моя душа болит
И восковых фигур прекрасен вид
> H
Покой везде царит....
Я их приводил в свой прекрасный дом
Их вином поил и развлекались мы потом
Иногда у них легкий был испуг
От прикосновений к нежной шее крепких рук
!Припев
Вот несет одна мне свои цветы
Вот стоит другая погруженная в мечты
Я пытался их до смерти рассмешить
Но пришлось как в старой сказке просто задушить
!Припев
-
!Соло не знаю - но перебор аккордами с куплета играется примерно так:
!5(струна),3,2,1,2,3,4,3,4. } 2 раза.
>Em C
Дремлет за горой
>D Hm
Мрачный замок мой.
>C Am
Душу мучает порой
> H7
Царящий в нем покой.
Для cвоих фантазий
Страждущий герой
О любви моей живой
Все образы со мной.
> Em
Припев:Я часто вижу страх
> D Em
В смотрящих на меня глазах.
>Em C D Hm
Им суждено уснуть в моих стенах,
> C Am
Застыть в моих мирах.
Но сердце от любви горит,
Моя душа болит.
И восковых фигур прекрасен вид,
> C Am H7
Покой везде царит.
Я их приводил
В свой прекрасный дом,
Их вином поил,
И развлекались мы потом.
Иногда у них
Легкий был испуг
От прикосновений
К нежной шее крепких рук.
!Припев
Вот несет одна
Мне свои цветы,
Вот стоит другая,
Погруженная в мечты.
Я пытался их
До смерти рассмешить,
Но пришлось,
Как в старой сказке, просто задушить.
!Припев
-
>Em Am
Дремлет за горой
>D G
Мрачный замок мой.
>C Am
Душу мучает порой
> H7
Царящий в нем покой.
Для твоих фантазий
Страждущий герой
О любви моей живой
Все образы со мной.
> Em Am
Припев:Я часто вижу страх
> D Hm Em
В смотрящих на меня глазах.
>Em Am D G
Им суждено уснуть в моих стенах,
> C
Застыть в моих мирах.
Но сердце от любви горит,
Моя душа болит.
И восковых фигур прекрасен вид,
> C H7
Покой везде царит.
Я их приводил
В свой прекрасный дом,
Их вином поил,
И развлекались мы потом.
Иногда у них
Легкий был испуг
От прикосновений
К нежной шее крепких рук.
Вот несет одна
Мне свои цветы,
Вот стоит другая,
Погруженная в мечты.
Я пытался их
До смерти рассмешить,
Но пришлось,
Как в старой сказке, просто задушить.
-
Intro: <Em Am D>
[E--------------------0---------0-------0----2--3--2--0-----\
H----------------------0-------1--1--3------3-----------3--\
G------------------------0-----2------------2--------------\
D--------1--2--4--5--------0---2---------------------------\
A--2--4----------------------------------------------------\
E----------------------------------------------------------\
> G C Am H7
E-------------0---0------------0---0----------2-----------\
H-------------1-----1----------1-----1--------0----------\
G--------0----0--------0-------2-------2------2-----------\
D-----0-------2-----------2----2---------2----1------------\
A-------------3----------------0--------------2-----------\
E--3----------0-------------------------------0----------\]
>Em Am D G
Дремлет за горой, мрачный замок мой.
>C Am H7
Душу мучает порой, царящий в нем покой.
Я своих фантазий страждущий герой,
А любви моей живой все образы со мной.
> Em Am D G C
Припев:Я часто вижу страх в смотрящих на меня глазах.
> H7 Am D G
Им суждено уснуть в моих стенах,
> C Am
Застыть в моих мирах.
> Em Am D G C
Но сердце от любви горит, моя душа болит.
> H7 Am D G
И восковых фигур прекрасен вид -
>C Am H7
Покой везде царит!
Я их приводил в свой прекрасный дом.
Их вином поил и развлекались мы потом.
Иногда у них легкий был испуг,
От прикосновений к нежной шее крепких рук.
!Припев
Solo:(Guitar1 и Guitar2 одновременно)
Guitar1:< Em Am D G C Am H7 H7>
Guitar2:[E----7--8--------8--7--------7--5------------------\
H-5--------8--7--------7--5--------5--4--5-5--4--5-\]
Guitar1:< H7 H7 Em Am D G C>
Guitar2:[E---------------------10--8--------12--10---------\
H-5--4--5-5--4-----5---------8--7----------7--5---\]
Guitar1:< Am H7 H7 H7>
Guitar2:[E--7--5-------------------------------------------\
H--------5--4--5-5--4--5-5--4--5-5--4-------------\]
!(Каждый аккорд Guitar1 бьет два раза
!вниз по струнам одиночными ударами, кроме <H7>)
Вот несет одна мне свои цветы,
Вот стоит другая, погруженная в мечты.
Я пытался их до смерти рассмешить,
Но пришлось, как в старой сказке, просто задушить!
!Припев
-
!Аккоpды для игpающей паpаллельно акyстической гитаpы
> Em Am(V) D(V) G(III) C Am/H Am H
[G|--------------------------------------------------------------------|-
D|---------4-4h5---------4~-------------------------------------------|-
A|---4-6-7-----------5-7-----7-5-------2-(2)h3-2---2---14b15r14-------|-
E|-7---------------5---------------3-5-----------5--------------------|-
> non chords Em Am(V) D(V) G(III) C Am/H Am H
G|--------------------------------------------------------------------|-
D|---------4-4h5---------4~-------------------------------------------|-
A|---4-6-7-----------5-7-----7-5-------2-(2)h3-2---2-9-s11-s12-s11-s9-|-
E|-7---------------5---------------3-5-----------5---7-s9--s10-s9--s7-|-]
> Em Am D G
(1)Дpемлет за гоpой мpачный замок мой,
>C Am H
Дyшy мyчает поpой цаpящий в нём покой.
Я твоих фантазий стpаждyщий геpой,
О любви моей живой все обpазы со мной.
> Em Am D H Em
Припев:Я часто вижy стpах в смотpящих на меня глазах
> Am D G C Am
Им сyждено yснyть в моих стенах, застыть в моих миpах.
> Em Am D H Em
Вновь сеpдце от любви гоpит моя дyша болит.
> Am D G C Am H
И восковых фигyp пpекpасен вид, покой везде цаpит.
(2)Я их пpиводил в свой пpекpассный дом,
Их вином поил и pазвлекались мы потом.
Иногда y них лёгкий был испyг
От пpикосновений к нежной шеи кpепких pyк.
!Пpипев
(3)Вот несёт одна мне свои цветы,
вот стоит дpyгая погpyженная в мечты.
я пытался их до смеpти pассмешить,
но пpишлось как в стаpой сказке пpосто задyшить.
!Пpипев
!Это скpипичная (violin) паpтия. А за неимением скpипки и неyмением
!на ней игpать подобpал на гитаpе:)
!Скpипичная паpтия - для втоpой гитаpы, а название, чтобы было понятно,
!чья это паpтия в оpигинале. Поэтомy violin можно понимать как Guitar II
!Табы сгpyппиpованы по паpам: скpипка соответствyет гитаpе
Violin:[e|---------------------------------------------|-
H|--------------12--10------------10-----15-13-|-
G|-9-11-12-11-9--------12-11-9-------12--------|-
D|-----------------------------12--------------|-
A|---------------------------------------------|-
E|---------------------------------------------|- \
} пеpвая паpа и т. д.
Guitar:G|---------------------------------------------|- /
D|-9----------------7----------------2---9-----|-
A|-7----------------5----------------2---7--7--|-
E|-----------------------------------0------5--|-
Violin:e|---------------------------------------------|-
H|---------10----------------------------------|-
G|----9-11-------------------------------------|-
D|-12---------9--10-12-10-9--------------------|-
A|--------------------------10-----------------|-
E|---------------------------------------------|-
Guitar:G|---------------------------------------------|-
D|-7-------------5-----------------------------|-
A|-5----------5--3-----------9-s11-s12-s11-s9--|-
E|------------3--------------7-s9--s10-s9--s7--|-
Violin:e|---------------------------------------------|-
H|--------------12--10------------10-----15-13-|-
G|-12-11-9----9--------12-11-9-------12--------|-
D|---------12------------------12--------------|-
A|---------------------------------------------|-
E|---------------------------------------------|-
Guitar:G|---------------------------------------------|-
D|-9----------------7----------------2---9-----|-
A|-7----------------5----------------2---7--7--|-
E|-----------------------------------0------5--|-
Violin:e|---------------------------------------------|-
H|---------10----------------------------------|-
G|----9-11-------------------------------------|-
D|-12---------9--10-12-10-9--------------------|-
A|--------------------------10-(10)s14---------|-
E|---------------------------------------------|-
Guitar:G|---------------------------------------------|-
D|-7-------------5------------------4----------|-
A|-5----------5--3------------------2----------|-
E|------------3--------------------------------|-]
!Violin & Guitar:
>Em Am D G C F H
[e|---------------------------------------------------------------|-
H|---------------------------------------------------------------|-
G|---------------------------------------------------------------|-
D|---9-10-------10-9------9-7------------------------------------|-
A|-7------10--9------9--7-----7----------------------------------|-
E|-------------------------------6-7-7-7-6-7-7-7-6-7-7-7-6-7-7-7-|-
!Тепеpь гитаpы еще pаз игpают то же самое, а скpипка на октавy выше
Violin:e|---------------------------------------------------------------------|-
H|---12-13--------13-12-------12-10------------------------------------|-
G|-9-------12--11-------11--9-------9----------------------------------|-
D|-------------------------------------8-9-9-9-8-9-9-9-8-9-9-9-8-9-9-9-|-
A|---------------------------------------------------------------------|-
E|---------------------------------------------------------------------|-]
-
||-------------------------|-------------------------|
||-------------------------|-------------------------|
||--9------9---------------|--7------7---------------|
||--9------9-----7------7--|--7------7-----5------5--|
||--7--7-7-7-----7------7--|--5--5-5-5-----5------5--|
||---------------5--5-5-5--|---------------3--3-3-3--|
!pm........
!1/2 1/2 1/2
!^ ^ ^
|-------------------------|-------------------------|
|-------------------------|-------------------------|
|--5------5---------------|---4------4---4---4-4-4--|
|--5------5------4------4-|---4------4---4---4-4-4--|
|--3--3-3-3------4------4-|---2--2-2-2-2-2-2-2-2-2--|
|----------------2--2-2-2-|-------------------------|
!pm.............
!^ ^ ^ all 1/2
|-------------------------|-------------------------|
|-------------------------|-------------------------|
|-------------------------|-------------------------|
|-------------------------|-------------------------|
|------6h7h9-10--7-9h10p9-|--7-5--7--5--------------|
|--7-9--------------------|------------8--7--7--7---|
!^ ^ ^ all 1/2
|--------------------------|-------------------------||
|--------------------------|-------------------------||
|--------------------------|-------------------------||
|---9-10------7-9-----5-7--|-------------------------||
|-7------10-5-----9-3-----7|-------------------------||
|--------------------------|--7--7--7----------------||
!^ ^ ^ all 1/2
|--------------------------|-------------------------||
|--------------------------|-------------------------||
|--------------------------|-------------------------||
|---9-10------7/10-9-------|---5-7-------------------||
|-7------10-5--------9-----|-3-----7-----------------||
|--------------------------|-----------7--7--7-------||
-
Intro:||--------0-2-|
||--0-1-3-----|
||o-----------|
||o-----------|
||------------|
||------------|
> Em Am
|--3-----2h0---------------------0--|
|----0---------0---1---------1p3----|
|------0-----0---0---2---0p2--------|
|----------------------2------------|
|------------------0----------------|
|--0--------------------------------|
> D G
|-2-----2p3h2---0-------------------|
|---3---------3---0-3-----0h1---3---|
|-----2---------------0-------0---0-|
|-0---------------------0-----------|
|-----------------------------------|
|-------------------3---------------|
> C A
|--0--------------------------------|
|----1---3p1---0---1-----0----------|
|------0-----0---0---2-----2---0----|
|----------------------2-----2---2--|
|--3---------------0----------------|
|-----------------------------------|
> H7
|--2--------2-----------2h3p2--(2)-||
|-----0--------0-----0-------------||
|--------2--------2---------------o||
|---------------------------------o||
|--2-------------------------------||
|----------------------------------||
>Em Am D G/Hm
(1)Дремлет за горой, мрачный замок мой.
>C Am H
Душу мучает порой, царящий в нем покой.
Я своих фантазий страждущий герой,
А любви моей живой все образы со мной.
> Em Am D G/Hm C
Припев:Я часто вижу страх в смотрящих на меня глазах.
> H Am D G/Hm
Им суждено уснуть в моих стенах,
> C Am
Застыть в моих мирах.
> Em Am D G/Hm C
Но сердце от любви горит, моя душа болит.
> H Am D G/Hm
И восковых фигур прекрасен вид -
> C Am H
Покой везде царит!
(2)Я их приводил в свой прекрасный дом.
Их вином поил и развлекались мы потом.
Иногда у них легкий был испуг,
От прикосновений к нежной шее крепких рук.
!Припев
(3)Вот несет одна мне свои цветы,
Вот стоит другая, погруженная в мечты.
Я пытался их до смерти рассмешить,
Но пришлось. как в старой сказке, просто задушить!
!Припев
!---------------------------------------------------
!<G/Hm> (1 струна)&gt;[x04423]&lt;(6 струна)
!На куплетах лучше играть вместо аккордов так
!(и желательно глушить):
!вместо <Em> - [xxx5x0]
! <Am> - [xxxx35]
! <D> - [xxxx55]
! <G/Hm> - [xxx45x]
! <C> - [xxx53x]
! <H> - [xxx42x]
!Бой такой -&gt; \/ \/ \/ \/ \/ \/ - все время вниз
!Припеве играть обычные аккорды
Документ
Категория
Ноты, аккорды
Просмотров
40
Размер файла
15 Кб
Теги
любви, король, воспоминания, шут
1/--страниц
Пожаловаться на содержимое документа