close

Вход

Забыли?

вход по аккаунту

?

Король и Шут - Дурак и молния

код для вставкиСкачать
1996 - Камнем по голове, 1999 - Ели мясо мужики
Дурак и молния
!(М. Горшенев - А. Князев)
> F E C Am
Грохочет гром, сверкает молния в ночи
> FE C Am
А на холме стоит безумец и кричит:
"Сейчас поймаю тебя в сумку и сверкать ты будешь мне
Мне так хочется чтоб чтоб стала ты моей!"
>F E Am F E Am
Припев:То парень к лесу мчится, то к полю, то к ручью
> F E C Am F EmAm
Все поймать стремится молнию
И сельский люд смотреть на это выходил
Как на холме безумец бегал и чудил
Он видно в ссоре с головою, видно сам себе он враг
Hадо ж выдумать такое, во, дурак!
!Припев
>F G C
Утром на сельской дороге
> Am F G
Медленно шел ночной герой
> C Am F G Am
Весь лохматый и седой... и улыбался
!Припев
-
>Hm F#m Em F#m Hm
(1)Грохочет гром, сверкает молния в ночи,
> F#m Em F#m Hm
А на холме стоит безумец и кричит:
> A D G F#m
"Сейчас поймаю тебя в сумку и сверкать ты будешь в ней,
> A D G F#m
Мне так хочется, чтоб стала ты моей!"
>Hm G A F#m
Припев:То парень к лесу мчится, то в поле, то к ручью,
>Hm G A F#m Hm
Всё поймать стремится мол - ни - ю
(2)Весь сельский люд смотреть на это выходил,
Как на холме безумец бегал и чудил,
Он видно в соре с головою, видно сам себе он враг,
Надо ж выдумать такое - во дурак!
Припев:То парень к лесу мчится, то в поле, то к ручью,
Всё поймать стремится молнию
(3)Утром по сельской дороге медленно шел ночной герой,
Весь лохматый и седой
И улыбался
Припев:То парень к лесу мчится, то в поле, то к ручью,
Всё поймать стремится молнию
-
>G# A G#
Грохочет гром,
> C#m
Сверкает молния в ночи,
> A G# C#m
А на холме стоит безумец и кричит:
"Сейчас поймаю тебя в сумку,
И сверкать ты будешь в ней
Мне так хочется, чтоб стала ты моей!".
>A G# C#m
То парень к лесу мчится,
То к полю, то к ручью,
Всё поймать стремится
>A H C#m
Молнию!
Весь сельский люд,
Смотреть на это выходил,
Как на холме безумец бегал и чудил.
Он, видно, в ссоре с головою,
Видно, сам себе он враг,
Надо ж выдумать такое - во дурак!
То парень к лесу мчится,
То к полю, то к ручью,
Всё поймать стремится
Молнию!
>H G#m
Утром по сельской дороге,
> A H
Медленно шёл ночной герой,
> E C#m
Весь лохматый и седой,
> A G#
И улыбался...
>H B D#m
То парень к лесу мчится,
То к полю, то к ручью,
Всё поймать стремится
>H C# D#m
Молнию!
-
!Вoт вaм вcтyплeниe:
1)------------------------------------------------------------------------------
2)---------------------------------------------------------------------------3--
3)-------------------------------4-2-----------------0--2--4---------4-------4--
4)------2----4-5---------1----------------------2---------------2---------------
5)---3----------------2---------------------------------------------------------
6)------------------------------------------------------------------------------
1)---------------------------------------
2)---------------------------------------
3)-------------------------------4-2-----
4)------2----4-5---------1-------------2-
5)---3----------------2------------------
6)---------------------------------------
!Тeкcт c aккopдaми нe пишy т. к. oн вceм извecтeн.. Удaчи!!!
-
!В начале идёт Басс
1)----------------------------------------------------------------------------
2)----------------------------------------------------------------------------
3)-------------------------------------------4--------------------------------
4)-------------------6--4--------4--6-----6----6--------------------6--4------
5)-0--4--6--7-----6--------4--7--------4----------0--4--6--7-----6---------4--
6)-------------4----------------------------------------------4---------------
> A G# C#m
(1)Гpохочет гpом, свеpкает молния в ночи,
> A G# C#m
А на холме стоит безyмец и кpичит:
> A G# C#m
"Сейчас поймаю тебя в сyмкy, и свеpкать ты бyдешь в ней.
> A G# C#m
Мне так хочется, чтоб стала ты моей".
>A G# C#m
Припев:То паpень к лесy мчится,
>A G# C#m
То к полю, то к pyчью,
> A G#7 C#m A G# C#m
Всё поймать стpемится молнию.
(2)Весь сельский люд смотpеть на это выходил,
Как на холме безyмец бегал и чyдил.
Он, видно, в ссоpе с головою, видно, сам себе он вpаг,
Hадо ж выдyмать такое - во дypак.
Припев:То паpень к лесy мчится,
То к полю, то к pyчью,
Всё поймать стpемится молнию.
>H E
(3)Утpом по сельской доpоге
> A H
Медленно шёл ночной геpой,
> G# C#m
Весь лохматый и седой,
> A G#
И yлыбался.
Проигрыш:1|-----------------------------------------------------------------------
2|-5-5-5-4-4-5--2-----5---7--4-5----5-5-7-7-9--5---10-9--(10 9 10 9 10 9)
3|-----------------2----4------------------------------------------------
>H Hb D#m
Припев:То паpень к лесy мчится,
> H Hb D#m
То к полю, то к pyчью,
> H Hb7 D#m H C# D#m
Всё поймать стpемится молнию.
!Аккорды играются на баре с акцентом на нижние струны.
-
> G F#
(1)Грохочет гром
> Hm
Сверкает молния в ночи
А на холме
Стоит безумец и кричит:
"Сейчас поймаю тебя в сумку
И сверкать ты будешь в ней
Мне так хочется
Чтоб стала ты моей!"
>G F# Hm
Припев:То парень к лесу мчится
>G F# Hm
То к полю, то к ручью
> G F# Hm
Все поймать стремится
> G A Hm
Мо-олни-ию
(2)Весь сельский люд,
Смотреть на это выходил,
Как на холме безумец бегал и чудил.
Он, видно, в ссоре с головою,
Видно, сам себе он враг,
Надо ж выдумать такое - во дурак!
Припев:То парень к лесу мчится,
То к полю, то к ручью,
Все поймать стремится
Молнию!
(3)Утром по сельской дороге,
Медленно шел ночной герой,
Весь лохматый и седой,
И улыбался...
Припев:То парень к лесу мчится,
То к полю, то к ручью,
Все поймать стремится
Молнию!
-
> A G# C#m
Грохочет гром, сверкает молния в ночи,
> A G# C#m
А на холме стоит безумец и кричит:
> A G#
"Сейчас поймаю тебя в сумку,
> C#m
И сверкать ты будешь в ней
> A G# C#m
Мне так хочется, чтоб стала ты моей!"
>A G# C#m
То парень к лесу мчится,
То к полю, то к ручью,
Все поймать стремится
Мол-ни-ю!
Весь сельский люд смотреть на это выходил,
Как на холме безумец бегал и чудил.
Он, видно, в ссоре с головою,
Видно, сам себе он враг,
Надо ж выдумать такое - во дурак!
То парень к лесу мчится,
То к полю, то к ручью,
Все поймать стремится
Молнию!
>H G#m
Утром по сельской дороге,
> A H
Медленно шел ночной герой,
> G#m C#m
Весь лохматый и седой,
> A G#
И улыбался...
>H B D#m
То парень к лесу мчится,
То к полю, то к ручью,
Все поймать стремится
Молнию!
Документ
Категория
Ноты, аккорды
Просмотров
23
Размер файла
8 Кб
Теги
король, молния, дурака, шут
1/--страниц
Пожаловаться на содержимое документа