close

Вход

Забыли?

вход по аккаунту

?

Крематорий - Мусорный ветер

код для вставкиСкачать
Кома (1988), Двойной альбом, *Живые и мертвые*
Мусорный ветер
!(А. Григорян)
Посвящается Андрею Платонову
> Em H
Мусорный ветер, дым из трубы
> Em H
Плач природы, смех Сатаны
> C Am F#
А все оттого, что мы
> C Am F# H Em
Любили ловить ветра и разбрасывать камни.
Песочный город, построенный мной,
Давным-давно смыт волной
Мой взгляд похож на твой:
В нем ничего кроме снов и забытого счастья.
> Am D
Припев:Дым на небе, дым на земле
> G Em
Вместо людей машины
> Am D
Мертвые рыбы в иссохшей реке
> G Em
Зловонный зной пустыни
> C Am H
Моя смерть разрубит цепи сна
> H Em
Когда мы будем вместе
> Em D C H7
> Em D C H7
Ты умна, а я идиот. И не важно, кто из нас раздает,
Даже если мне повезет, и в моей руке будет туз,
В твоей будет джокер.
Так не бойся, милая, ляг на снег
Слепой художник напишет портрет.
Воспоет твои формы поэт.
И станет "звездой" актер бродячего цирка.
Соло:[E|-7-------------7-|-5---2---0-2-5---|-3---0-------0-3-|-2-----------2---|
B|-----5---5-7-8---|-------3---------|---------1-3-----|-----4-0-2-4-----|
| | | | | | | | | | | | | | | | | | | | | | | | | | | | | | | |
E|-7-------------7-|-5---2---0-2-5---|-3---0-------0-3-|-2-----------2---|
B|-----5---5-7-8---|-------3---------|---------1-3-----|-----4-0-2-4-----|
| | | | | | | | | | | | | | | | | | | | | | | | | | | | | | | |
E|-2-3-2-0---------|
B|-----------------|]
Басовая партия:[A|---------------------------2-|-------------------------2--| BA
E|--0--------------0--3---5----|-3-0-------------0---3-5----| SS]
Мусорный ветер, дым из трубы плач природы, смех сатаны
[A|-2-3-----3-------------------|--2-3----3------------------| BA
E|-----------5-----3-2---------|-----------5----3-2---------| SS]
А все оттого, что мы любили ловить ветра
[A|--------2-----2--------------|----------------------------| BA
E|-----2-----------0-----------|----------------------------| SS]
и разбрасывать камни
Песочный город, построенный мной
Давным-давно смыт волной
Мой взгляд похож на твой
В нем нет ничего кроме снов и забытого счастья
[A|---------------5----5--5-----|----------------------------| BA
E|--5---5--5-7---------------5-|-3-----3--3---2-0-0---0-2-4-| SS]
Дым на небе, дым на земле вместо людей машины
[A|-----------------5-------5-5-|----------------------------| BA
E|--5---5--5-7-----------------|---5-3---3--3----2-0-0------| SS]
Мертвые рыбы в иссохшей реке зловонный зной пустыни
[A|---2-3------3----------------|--------2---2---------------| BA
E|---------------5-------3-2---|--2---------------0---------| SS]
Моя смерть разрубит цепи сна когда мы будем вместе
-
>Em H
(1)Мусорный ветер, дым из трубы
>Em H
Плач природы, смех сатаны
> C Am Fm#
А все оттого, что мы
> C Am Fm# H Em
Любили ловить ветра и разбрасывать камни
(2)Песочный город, построенный мной
Давным-давно смыт волной
Мой взгляд похож на твой
В нем нет ничего кроме снов и забытого счастья
>Am D
Припев:Дым на небе, дым на земле
> G Em
Вместо людей машины
>Am D
Мертвые рыбы в иссохшей реке
> G Em
Зловонный зной пустыни
>C Am Fm# H
Моя смерть разрубит цепи сна
>H Em
Когда мы будем вместе
(3)Ты умна, а я идиот
И неважно, кто из нас раздает
Даже если мне повезет
И в моей руке будет туз в твоей будет joker
(4)Так не бойся милая, ляг на снег
Слепой художник напишет портрет
Воспоет твои формы поэт
И станет звездой актер бродячего цирка
!Припев
-
Вступление:[e|-7-----------7---5---------5---------------------------------------------
b|----5--5-7-8---------7--7-----8--5------5-8--7--4-0-4--7--7-8-7----------
g|----------------------7-------------5-7----------------------------------
e|-7-----------7---5---------5---------------------------------------------
b|----5--5-7-8---------7--7-----8--5------5-8--7--4-0-4--7--7-8-5----------
g|----------------------7-------------5-7----------------------------------]
>Em Em+F# Em+G H7
Мусоpный ветеp, дым из тpу-бы
>Em Em+F# Em+G H7
Плач пpиpоды, смех са - та - ны,
> C C+H Am Am+G F#
А все от то - го, что мы
> C C+H Am Am+G F# H Em
Любили ло-вить вет - pа и pазбpасывать камни.
Песочный гоpод постpоенный мной
Давным-давно смыт волной,
Мой взгляд похож на твой
В нем нет ничего от любви и забытого счастья.
5|------------0--
6|---0--2--4-----
!Пpипев
>Am D
Дым на небе, дым на земле
>G Em
Вместо людей машины
>Am D
Меpтвые pыбы в иссохшей pеке,
> G Em
Зловонный зной пустыни
>C C+H Am F#
Моя смеpть pаз-pубит цепи сна,
>H Em
Когда мы будем вместе.
5|-----------------0--2
6|---0--2--3--0--2-----
Каpтинки:<Em+F# Em+G C+H Am+G>
[000202 000203 010020 012023]
-
!(переложение для 1-й гитары)
Проигрыш:< Em D>
[--7-----0-----0-2-3-7-----5---2-----2-5-----5----- #1
------0---0-------------0---------3-------3---3---
----0-------0---------0-----2---2-------2-------2- ----------|
--------------------------0-----------0----------- |
-------------------------------------------------- |
--0-----------0----------------------------------- |
<C H7> |
--3-----0---------0-3-----2-----------2-----2----- #2 |
------1---1---1-3-----1-------4-4-0-4-----0---0--- |
----0-------0-----------0---2-----------2-------2- |
-------------------------------------------------- |
--3-----------3-----------2-----------2----------- |
-------------------------------------------------- |
<Em D> |
--7-----0-----0-2-3-7-----5---2-----2-5-----8-7-5- Можно играть и | #1
--8---8---0-----4-5-8---8---------3-------3------- вместо этой "строки"
----0-------0---------0-----2---2-------2--------- #3
--------------------------0-----------0-----------
--------------------------------------------------
--0-----------0-----------------------------------
> C H7
--3-----0---------0-3-----2-----------2-----2-3-2- #4
------1---1---1-3-----1-------4-4-0-4-----0-------
----0-------0-----------0---2-----------2---------
--------------------------------------------------
--3-----------3-----------2-----------2-----------
--------------------------------------------------
> Em
--0-----0----------------- #5
------0---0---------------
----0-------0-------------
--------------------------
--------------2-3-2-0-----
--0-------------------3-2-]
> Em C H7
(1)Мусорный ветер, дым из трубы,
> Em C H7
Плач природы, смех сатаны,
> C F#
А все от того, что мы
> C F#
Любили ловить ветра
> H7 Em
И разбрасывать камни.
Басовый ход:5|-2-3-2-0-----
6|---------3-2- (возможны варианты)
Песочный город, построенный мной,
Давным-давно смыт волной.
Мой взгляд похож на твой:
В нем нет ничего, кроме снов
И забытого счастья.
Припев:[-0-2-3- - указательный Hебольшой заход в припев :)
-------
-------
-------
-------
-0-2-3- - большой палец]
> Am7 D
Дым на небе, дым на земле,
> G Hm Em
Вместо людей машины.
> Am7 D
Мертвые рыбы в усохшей реке,
> G Hm Em
Зловонный зной пустыни.
> Am F#
Моя смерть разрубит цепи сна,
> H7 Em
Когда мы будем вместе.
!Проигрыш
(2)Ты умна, а я - идиот,
Hеважно, кто из нас раздает,
Даже если мне повезет,
И в моей руке будет туз - то в твоей будет джокер.
!Басовый ход
Так не бойся милая - ляг на снег,
Слепой художник напишет портрет,
Воспоет твои формы поэт,
И станет звездою актер бродячего цирка.
!Припев
Проигрыш:#3 #4 #5 + флажолет на 12 ладу по вкусу :)
-
> Em D C
1|-------------------------------------------------------
2|-------------------------------------------------------
3|--4---------------4--2-----------2--2--0-------------0-
4|-----2--2--4--5---------4--0--4-----------2----0--2---
5|---------------------------------------------3---------
6|-------------------------------------------------------
> H7
1|-------------------
2|-------------------
3|-------------------
4|--4--1----1--4--4--
5|--------2----------
6|-------------------
> Em D C
1|-------------------------------------------------------
2|-------------------------------------------------------
3|--4---------------4--2-----------2--2--0-------------0-
4|-----2--2--4--5---------4--0--4-----------2----0--2---
5|---------------------------------------------3---------
6|-------------------------------------------------------
> H7 Em
1|--------------------------
2|--------------------------
3|--------------------------
4|--4--1----1--4--4--5--4--2
5|--------2-----------------
6|--------------------------
> Em H7
(1)Мусорный ветер- дым из трубы,
> Em H7
Плач природы, крик сатаны,
> C Am F#m
А все от того что мы,
> C Am F#m
Любили ловить ветра
> H7 Em
И разбрасывать камни.
(2)Песочный город построенный мной,
Давным-давно смыт волной,
Мой взгляд похож на твой,
В нем нет ничего кроме снов
И забытого счастья.
>Em Em Am D
Припев:Дым на небе, дым на земле
> G Em
Вместо людей - машины,
> Am D
Мертвые рыбы в иссохшей воде,
> G Em
Зловонный зной пустыни.
> C Am F#m
Моя смерть разрубит цепи зла,
> H7 Em
Когда мы будем вместе.
(3)Ты умна, а я идиот,
И неважно кто из нас раздает
Даже если мне повезет,
И в моей руке будет туз,
В твоей будет джокер.
(4)Так не бойся милая ляг на снег,
Слепой художник напишет портрет,
Воспоет твои формы поэт,
И станет звездой актер
Бродячего цирка.
!Припев } x2
!Вместо <H7> можно играть <H>
Документ
Категория
Ноты, аккорды
Просмотров
13
Размер файла
11 Кб
Теги
ветер, крематорий, мусорный
1/--страниц
Пожаловаться на содержимое документа