close

Вход

Забыли?

вход по аккаунту

?

Круг Михаил - Идет этап

код для вставкиСкачать
Лирика, Роза
Идет этап
>Am
Ты к запретке подойдешь,
>E
Помахаешь мне рукой,
>Gm A7
Улыбнешься как всегда,
> Dm Dm7
И крикнешь здравствуй!
>E
Здравствуй добрая моя,
>Am F
Здравствуй милая моя,
> Dm E
Не надо печали, и так все ясно.
> Am
Прошлый раз смотрел в окно,
> E
Дождь шел сильный проливной.
>Gm A7 Dm Dm7
Мы смотрели друг на друга и молчали.
>E
По твоим щекам текли,
>Am F
Капли летнего дождя,
> Dm E
А может слезы, слезы печали
> Am F Dm E Am F Dm E
Идет этап. Идет этап.
Он идет в такую тьму,
В саликанскую тюрьму,
Белый лебедь часто сном,
Кошмарным вижу.
Суки правят беспредел,
Не один я посидел
Думал о тебе, лишь тем и выжил.
Лишь к тебе одной родной
Я стремился всей душой.
У тебя одной молю, прошу прощенья.
Понимаю твою грусть,
Но ты ждешь и я вернусь,
А пока для нас печаль, и сожаленье
Идет этап...
-
>Em
(1)Ты к запретке подойдёшь,
>H
Помахаешь мне рукой.
>Dm E
Улыбнёшься как всегда
>Am
И крикнешь:"Здравствуй!"
>H
Здравствуй добрая моя,
>Em C
Здравствуй милая моя,
> Am H
Не надо печали и так всё ясно.
Прошлый раз смотрел в окно
Дождь шёл сильный, проливной.
Мы смотрели друг на друга и молчали.
По твоим щекам текли капли летнего дождя,
А может слёзы, слёзы печали.
> Em C Am H
Припев:Идёт этап.
> Em C Am H
Идёт этап.
(2)Он идёт в такую тьму, Саликамскую тюрьму,
"Белый Лебедь" часто сном кошмарным вижу.
Суки правят безпредел, ни один я поседел,
Думал о тебе, лишь тем и выжил.
Лишь к тебе одной родной
Я стремился всей душой.
У тебя одной молю, прошу прощенья!
Понимаю твою грусть, но ты ждёшь и я вернусь,
А пока для нас печаль и сожаленье.
Припев:Идёт этап.
Идет этап.
!Табы на припев:
1|--------------0-----------|--------------0-----------|
2|-----------------0--------|-----------1-----1--------|
3|-----------0--------------|--------0-----------------|
4|--------2-----------2--0--|-----2--------------------|
5|-----2--------------------|--3-----------------3--2--|
6|--0-----------------------|--------------------------|
1|--------------0-----------|--------------2-----------|
2|-----------1-----1--------|-----------4-----4--------|
3|--------2-----------2-----|--------4-----------4-----|
4|-----2-----------------2--|-----4-----------------4--|
5|--0-----------------------|--2-----------------------|
6|--------------------------|--------------------------|
Документ
Категория
Ноты, аккорды
Просмотров
16
Размер файла
3 Кб
Теги
этап, круг, михаил, идет
1/--страниц
Пожаловаться на содержимое документа