close

Вход

Забыли?

вход по аккаунту

?

Крупский Сотоварищи - Я остаюсь

код для вставкиСкачать
Я остаюсь
Intro:[E----------------------------------------------------------- \
B----------------------------------------------------------- \
G---6/8-8-8---6/8-8----------------------------------------- \ 8 раз
D---6/8-8-8---6/8-8----------------------------------------- /
A---4/6-6-6---4/6-6----------------------------------------- /
E-----------------------------------------------------------] /
Verse:[E----------66-6-66-6-66-6-66-6------
PM-------------------]
А мы опять стоим, и в трюме вода,
[E----------66-6-66-6-66-6-66-6------]
И ты опять твердишь, что надо бежать,
[A----------66-6-66-6-66-6-66-6-------
E------------------------------------]
И ты опять твердишь, что надо туда,
[E-------------66-6-66-6-66-6-66-6-----]
Где не качает, сухо, и есть чем дышать,
Hо ведь и здесь есть шанс, пускай один из дести,
Пусть время здесь вперед, не мчится - ползет,
И пусть остаться здесь трудней чем уйти,
> F#5 F5
[D----------------4-----------------3-----------
A----------------4-----------------3-----------
E----------------2-----------------1-----------]
Я все же верю, что мне повезет...
Chorus:[E--------------------------------------------------
B--------------------------------------------------
G-------------------6/8-8-8---6--------------------
D---1------4--6-----6/8-8-8---6--------------------
A---1--1h3-4--6-----4/6-6-6---4--------------------
E----------2--4-------------0---0-0-0-0-0-0-0------]
И я, Я остаюсь,
[E--------------------------------------------------
B--------------------------------------------------
G--------------------------------------------------
D---6----9--------11-------------------------------
A---6----9--------11-------------------------------
E---4----7---------9-------0000-0000-0000-0000-----]
Там где мне хочется быть,
[E--------------------------------------------------
B--------------------------------------------------
G-------------------------6/8-8-8------------------
D----6-----9-------11-----6/8-8-8------------------
A----6-----9-------11-----4/6-6-6------------------
E----4-----7--------9-------------0-0000-0000------]
И пусть, я немного боюсь,
[E--------------------------------------------------
B--------------------------------------------------
G--------------------------------------------------
D----6--9-11-----9---8-----------------------------
A----6--9-11-----9---8-----------------------------
E----4--7--9-----7---6-----------------------------]
Hо я, я остаюсь,
[E--------------------------------------------------
B--------------------------------------------------
G--------------------6/8-8-8--6/8-8----------------
D--------------------6/8-8-8--6/8-8----------------
A--------------------4/6-6-6--4/6-6----------------
E--------------------------------------------------]
Я остаюсь чтобы жить!
Документ
Категория
Ноты, аккорды
Просмотров
12
Размер файла
3 Кб
Теги
крупский, остаюсь, сотоварищи
1/--страниц
Пожаловаться на содержимое документа