close

Вход

Забыли?

вход по аккаунту

?

Кузьмин Владимир - Кружит листва

код для вставкиСкачать
Кружит листва
!Вступление } 2раза
> Gm Gm7 G7 D#
[E--3--3---3---|--3--3---3---|--3--3----3---|--3--3----3----|
B--3--3---3---|--6--6---6---|--5--5----5---|--4--4----4----|
G--3--3---3---|--3--3---3---|--3--3----3---|--3--3----3----|
D--5--5---5---|--3--3---3---|--5--5----5---|--5--5----5----|
A--5--5---5---|--5--5---5---|--3--3----3---|--6--6----6----|
E--3--5---3---|--3--3---3---|--3--3----3---|--3--3----3----|]
!Куплет 1 (играется таким же ритмом как вступление)
> Gm Gm7 G7 D#
[E--3--3---3---|--3--3---3---|--3--3----3---|--3--3----3----|
B--3--3---3---|--6--6---6---|--5--5----5---|--4--4----4----|
G--3--3---3---|--3--3---3---|--3--3----3---|--3--3----3----|
D--5--5---5---|--3--3---3---|--5--5----5---|--5--5----5----|
A--5--5---5---|--5--5---5---|--3--3----3---|--6--6----6----|
E--3--5---3---|--3--3---3---|--3--3----3---|--3--3----3----|]
Кружит лист-ва как стая жёлтых пару- сов
Осенний ветер словно страх приносит дрожь
> Gm Gm7 G7 D#
[E--3--3---3---|--3--3---3---|--3--3----3---|--3--3----3----|
B--3--3---3---|--6--6---6---|--5--5----5---|--4--4----4----|
G--3--3---3---|--3--3---3---|--3--3----3---|--3--3----3----|
D--5--5---5---|--3--3---3---|--5--5----5---|--5--5----5----|
A--5--5---5---|--5--5---5---|--3--3----3---|--6--6----6----|
E--3--5---3---|--3--3---3---|--3--3----3---|--3--3----3----|]
Но ты не пряч своё ус -талое ли -цо
> D C7 E B(H) C
[E--2----------|--0---------|--0--------|--1-----0---|
B--3----------|--3---------|--0--------|--3-----1---|
G--2----------|--0---------|--0--------|--3-----0---|
D--0----------|--2---------|--2--------|--3-----2---|
A--0----------|--3---------|--2--------|--1-----3---|
E--0----------|--0---------|--0--------|--1-----3---|]
Снежинок больше нет ос-тался только дождь.
!Припев
> D Em C G
[E--2---------|--0------------|--0------------|--3----------|
B--3---------|--0------------|--1------------|--3----------|
G--2---------|--0------------|--0------------|--0----------|
D--0---------|--2------------|--2------------|--0----------|
A--0---------|--2------------|--3------------|--2----------|
E--0---------|--0------------|--3------------|--3----------|]
Раскрой...cерый капюшон -йди поближе -дрог Какой
сегодня сам себе смешон лучше чем быть -ток Бегут го-
> D Em C D
[E--2---------|--0------------|--0------------|--2----------|
B--3---------|--0------------|--1------------|--3----------|
G--2---------|--0------------|--0------------|--2----------|
D--0---------|--2------------|--2------------|--0----------|
A--0---------|--2------------|--3------------|--0----------|
E--0---------|--0------------|--3------------|--0----------|]
да но небеда ждём пока живём странно мы по - прежнему дво-
> Em C D
|--0------------|--0------------|--2----------|
|--0------------|--1------------|--3----------|
|--0------------|--0------------|--2----------|
|--2------------|--2------------|--0----------|
|--2------------|--3------------|--0----------|
|--0------------|--3------------|--0----------|
-ём.И как не - странно мы по -прежнему вдво-ём.
!Вступление: <Gm>|<Gm7>|<G7>|<D#> } 2 раза
!Куплет 2(перебором)
[E----3-------|----3-------|----3-------|----3--------|
B---3-3------|-----3------|-----3------|-----3-------|
G--0---0-----|---0--0-----|---0--0-----|---0---------|
D------------|--3---------|--2---------|--1---0^1----|
A------------|------------|------------|-------------|
E------------|------------|------------|-------------|]
В безмолвном парке нет как -будто не ду -ши
Лишь только дождь шуршит за-думчиво в ти- ши
[E----2--------|----0--------|----0--------|---------0--|
B-----3-------|-----3-------|-----3-------|----3----3--|
G---2--2------|---2--2------|---0--0------|---0----0---|
D--0----------|-------------|-------------|------------|
A-------------|--3----------|--2----------|--1--1^3----|
E-------------|-------------|-------------|------------|]
И кару -сель давно за -крыта на за -мок
И впере -ди смеётся детский голо -сок.
!Припев(тот же) } 2 раза
!#Концовка 2го повтора припева играется перебором.#
> C D
[E---|-----|---------|-----3-------3-------3-------3-----|
B---|-----|---------|---3---3------3-------3-------3----|
G---|-----|---------|--0-----0--0----0--0---0--0--------|
D---|-----|---------|---------3-------2------1------0^1-|
A---|-----|---------|-----------------------------------|
E---|-----|---------|-----------------------------------|]
не странно ... вдво-ём.................
[E----2--------|----0--------|----0--------|----------0-|
B-----3-------|-----3-------|-----3-------|----3----3--|
G---2--2------|---2--2------|---0--0------|---0----0---|
D--0----------|-------------|-------------|------------|
A-------------|--3----------|--2----------|--1--1^3----|
E-------------|-------------|-------------|------------|]
.......................................................
!#ПОВТОР ЕЩЁ РАЗ#
[E----3-------|----3-------|----3-------|----3--------|
B---3-3------|-----3------|-----3------|-----3-------|
G--0---0-----|---0--0-----|---0--0-----|---0---------|
D------------|--3---------|--2---------|--1---0^1----|
A------------|------------|------------|-------------|
E------------|------------|------------|-------------|]
.....................................................
[E----2--------|----0--------|----0--------|
B-----3-------|-----3-------|-----3-------|
G---2--2------|---2--2------|---0--0------|
D--0----------|-------------|-------------|
A-------------|--3----------|--2----------|
E-------------|-------------|-------------|]
...........................................
|----------0---|------- --6~7-|-7
|----3----3-3--|------- --7~8-|-8
![|---0----0---0-|---F12-] (ПАУЗА)[------|]
|--------------|------- ------|
|--1--1^3------|------- ------|
|--------------|------- ------|
.............
!F12-ФЛАНЖИЛЕТ(3-Я СТРУНА ПОЛУОТКРЫТАЯ);
! ~ -плавно;
!7 -очень коротко.
!8
!1.
Кружит листва как стая жёлтых парусов
Осенний ветер словно страх приносит дрожь
Но ты не пряч своё усталое лицо
Снежинок больше нет остался только дождь.
!Припев.
Раскрой же зонт надвинь свой серый капюшон
И подойди поближе я слегка продрог
Какой смешной сегодня день
И в нём я сам себе смешон
Но это лучше чем быть жалким как листок
Бегут года но небеда
Мы вечно ждём пока живём
И как не странно мы попрежнему вдвоём.
!2.
В безмолвном парке нет как-будто не души
И карусель давно закрыта на замок
Лишь только дождь шуршит задумчиво в тиши
И впереди смеётся детский голосок.
Документ
Категория
Ноты, аккорды
Просмотров
20
Размер файла
7 Кб
Теги
владимир, листва, кружит, кузьмин
1/--страниц
Пожаловаться на содержимое документа