close

Вход

Забыли?

вход по аккаунту

?

Кузьмин Владимир - Мама, я попал в беду

код для вставкиСкачать
Динамик (1982), Моя подруга Удача (1992)
Мама, я попал в беду
!(В. Кузьмин - В. Кузьмин, И. Кохановский)
>Dm Am
Я вижу, что расстаться придется нам с тобой
>Gm Dm
Что нам не сладить с этою бедой
> Am
Hаверно зря пытаться свои мечты спасти
>Gm D
Мы далеко зашли и выход вряд ли нам найти.
Как будто я стою у бездны на краю
Решается сейчас судьба моя
Но есть на свете дом, мне станет легче в нем,
О, только в нем и только в нем забудусь я.
>Dm C
Мама, мама, я попал в беду, я попал в беду,
> Am
Что мне делать с ней?
>Dm C
Мама, мама, я к тебе иду, я к тебе иду,
> Am
К мудрости твоей
> D F Em A
С бедою своей, да забыться скорей...
Но если нет пути и если нам идти,
Как прежде вместе шли, уже нельзя.
Что ж, есть на свете дом, я успокоюсь в нем,
О, только в нем и только в нем забудусь я.
>Dm C
Мама, мама, я попал в беду, я попал в беду,
> Am
Что мне делать с ней?
>Dm C
Мама, мама, я к тебе иду, я к тебе иду,
> Am
К мудрости твоей
> Dm
С бедою своей.
С бедою своей.
> C Am
С бедою своей.
О-о-о, что мне делать с ней,
Я попал в беду
Что мне делать с ней, что мне делать с ней
Я попал в беду
Что мне делать с ней, я попал в беду, я попал в беду
Что мне делать с ней, я попал в беду, мама, мама,
Я попал в беду, мама, мама, мама, мама, мама.
-
Вступление:[E-------0-----|-------8------|-----0------|--------0----|
B----6----6---|----6-----6---|---0----0---|---0-------0-|
G---7-7--7-7--|---7-7---7-7--|--5-5--5-5--|--5-5-----5-5|
D--0----------|--0-----------|-7----------|-7-----------|
A-------------|--------------|------------|-------------|
E-------------|--------------|------------|-------------|
E-------3----|-------5------|-----2^3^2----|----2^3^2----|
B----3----3--|----3----3----|---3-------3--|--3--------3-|
G---3-3--3-3-|---3-3--3--3--|--2-2-------2-|-2-2--------2|
D--5---------|--5-----------|-0------------|0------------|
A------------|--------------|--------------|-------------|
E------------|--------------|--------------|-------------|
Куплет 1:E-------0-----|-------8------|-----0------|--------0----|
B----6----6---|----6-----6---|---0----0---|---0-------0-|
G---7-7--7-7--|---7-7---7-7--|--5-5--5-5--|--5-5-----5-5|
D--0----------|--0-----------|-7----------|-7-----------|
A-------------|--------------|------------|-------------|
E-------------|--------------|------------|-------------|]
Я вижу что расстаться Птидётся нам с тобо-о-о-ой
Наверно зря пытаться Свои мечты спасти-и-и-и.
[E-------3----|-------3------|-------2^3^2---|-----2^3^2---|
B----3----3--|----3----3----|----3-------3--|--3--------3-|
G---3-3--3-3-|---3-3--3--3--|---2-2-------2-|-2-2--------2|
D--5---------|--5-----------|--0------------|0------------|
A------------|--------------|---------------|-------------|
E------------|--------------|---------------|-------------|]
Что нам не сладить -ю бедой
Мы далеко зашли -ли нам найти.
!#Дальше куплет так же.#
Куплет 2: <Dm Am>
[E-------1----|-------1---|-------0------|-------0-----|
B----3-----3-|----3----3-|----1-----1---|----1----1---|
G---2-2---2-2|---2-2--2-2|---2-2---2-2--|---2-2--2-2--|
D--0---------|--0--------|--2-----------|--2----------|
A------------|-----------|--------------|-------------|
E------------|-----------|--------------|-------------|]
Как-будто я стою У бездны на краю
Но есть на свете Я успокоюсь в нём
> Gm D
[E-------3----|-------5------|-------2------|-------2-----|
B----3----3--|-----3----3---|----3-----3---|----3----3---|
G---3-3--3-3-|----3-3--3-3--|---2-2---2-2--|---2-2--2-2--|
D--5---------|--5-----------|--0-----------|--0----------|
A------------|--------------|--------------|-------------|
E------------|--------------|--------------|-------------|]
Решается сейчас Судь -ба моя.
> Gm D
[E-------3----|-------5------|-------2------|---------------|
B----3----3--|-----3----3---|----3-----3---|---3-----------|
G---3-3--3-3-|----3-3--3-3--|---2-2---2-2--|--2-2------0-3-|
D--5---------|--5-----------|--0-----------|-0-----0-3-----|
A------------|--------------|--------------|---------------|
E------------|--------------|--------------|---------------|]
О только внём и только -будусь я...........
Припев:< Dm>
[E-------1----|----------------|-------1------|-------------|
B----3-----3-|----3-----------|----3-----3---|----3--------|
G---2-2---2-2|---2-2----------|---2-2---2-2--|---2-2-------|
D--0---------|--0--------0-3--|0-------------|--0-------0-3|
A------------|-------0-3------|--------------|-------0-3---|
E------------|----------------|--------------|-------------|]
Мама! Мама!
Мама! Мама!
> С А
[E--------0------|--------0------|------0------|------------|
B----1------1---|----1------1---|---2-----2---|---2--------|
G---0-0----0-0--|---0-0----0-0--|--2-2---2-2--|--2-2-------|
D---------------|--2------------|-------------|-2-------0-3|
A--3------------|---------------|-0-----------|------0-3---|
E---------------|---------------|-------------|------------|]
Я попал в беду! Я попал в беду! Что мне ... с ней?!
> С А
[E--------0------|--------0------|------0------|------0-----|
B----1------1---|----1------1---|---2-----2---|---2----2---|
G---0-0----0-0--|---0-0----0-0--|--2-2---2-2--|--2-2--2-2--|
D---------------|--2------------|-------------|-2----------|
A--3------------|---------------|-0-----------|------------|
E---------------|---------------|-------------|------------|]
Я к тебе иду! Я к тебе иду!К мудрости твоей C бедою
своей...
Проигрыш:(как вступление)
[E-------0-----|-------8------|-----0------|--------0----|
B----6----6---|----6-----6---|---0----0---|---0-------0-|
G---7-7--7-7--|---7-7---7-7--|--5-5--5-5--|--5-5-----5-5|
D--0----------|--0-----------|-7----------|-7-----------|
A-------------|--------------|------------|-------------|
E-------------|--------------|------------|-------------|
E-------3----|-------5------|-----2^3^2----|----2^3^2----|
B----3----3--|----3----3----|---3-------3--|--3--------3-|
G---3-3--3-3-|---3-3--3--3--|--2-2-------2-|-2-2--------2|
D--5---------|--5-----------|-0------------|0------------|
A------------|--------------|--------------|-------------|
E------------|--------------|--------------|-------------|]
!3-й куплет (как 2й)
!Припев (так же)
!Проигрыш (как вступление) } 2 раза
Я вижу что расстаться
Придётся нам с тобой
Что нам не сладить
С этою бедой.
Наверно зря пытаться
Свои мечты спасти
Мы далеко зашли
И выход врятли нам найти.
Как-будто я стою
У бездны на краю
Решается сейчас судьба моя
Но есть на свете дом
И я успокоюсь в нём
О только в нём
И только в нём забудусь я.
Припев:Мама! Мама! Я попал в беду! Я попал в беду!
Что мне делать с ней?!
Мама! Мама! Я ктебе иду! Я ктебе иду!
К мудрости твоей, с бедою своей...
Но если нет пути
И если нам идти
Как прежде вместе шли
Уже нельзя.
Чтож, есть на свете дом
И я успокоюсь в нём
О только в нём
И только внём
Забудусь я.
Документ
Категория
Ноты, аккорды
Просмотров
12
Размер файла
8 Кб
Теги
владимир, мама, беду, попал, кузьмин
1/--страниц
Пожаловаться на содержимое документа