close

Вход

Забыли?

вход по аккаунту

?

Легион - Двое

код для вставкиСкачать
Двое
!Introduce играется примерно так:
!Играть два раза
[E||-87----7-------7-----7-|-------7----8----5--5-|---------5-----5--|
B|--8-----8----|-------8----8---------|---5--------5-----5------|
G--|-------9----9---------|------5--------5--5------|
D||--------9----------------------------------------|
A--------7------------------|
E-------------------------5-|]
!*
FL FL FL FL
[-------------------------|------7--------------|----12-----------------||
-------8-----7--8-----8--|-7-------7-----------|--------12-------------||
-------9-----8--9-----9--|-8----------8--------|-9----------12---------||
-------10----9--10----10-|-9-----------------9-----------------||
--------------------------------7------------------||
-7--8------------------------7------------12-------||]
!* *
!FL - флажолет на 12 ладу (кто не знает - слегка касаешься
!струны пальцем точно над 12 ладом, затем правой рукой извлекаешь
!на ней ноту и, одновременно, убираешь палец с 12 лада)
!Ноты помеченные * играются только на втором заходе.
!Боем:
>Em Am
(1)Луна и снег Немного странный вечер
>C H7 Em
Какой-то необычный непростой
>Em Am
О чем-то нам нашептывает ветер
>C H7 Em
Февральский ветер пахнущий весной
И мы идем Лед под ногами хрупок
И чуток этот полуночный час...
Как яблоко разламывает с хрустом
Мороз луну наверное для нас
>G D C
Припев:Молчим молчим молчим о чем-то скованно
>G D C
О том, что знаем оба ты и я
>G D C
О том чего не выскажешь и словом
>Am H7 Em
О чем весной прошепчут тополя
(2)А лунный свет - серебряная мягкость -
Накладывает тени под глаза
И гасит их безудержную яркость
И помогает все недосказать
А снег а снег а снег так мягко сыплет
Так медленен и тих спокойный шаг
И кроме нас с тобой никто не слышит
Как Это слово бьется на губах
!*Куплеты можно играть и вот таким перебором, получается похоже:*
|--------*-----------*---------|
|------*---*-------*---*-------|
|----*-------*---*-------*-----|
---*---------------|
|--*---------------------------|
-------------------|
-
Intro:[-3-/-7------7-----------7-------7---9--|--5----5-----5-----5------------------
---------7------8-----------8---8--10--|-----5---5-----5------5--3--5--3------
--------------------------------9------|-----------5-----5----5--3--5--3------
-----9---9----------9---9---9----------|----------------------5--3--5--3------
-----7------------------7--------------|--7-------------------5---------------
---------------------------------------|--5-----------------------------------]
Harm.....
[--------7--------------7-------12--------(12)---------------------------------
---7------7-------8-------8--------8--------(12)------------------------------
------7-----7--------9-------9--------9--------(12)---------------------------
------------------------------------------------------------------------------
---9--------------------------------------------------------------------------
---7-----------7--------------------------------------------------------------
-3-/-7------7-----------7-------7---9--|--5----5-----5-----5------------------
---------7------8-----------8---8--10--|-----5---5-----5---------5--3--5--3---
--------------------------------9------|-----------5-----5-------5--3--5--3---
-----9---9----------9---9---9----------|-------------------------5--3--5--3---
-----7------------------7--------------|--7----------------------5------------
---------------------------------------|--5------------------5-7--------------]
Harm.....
[--------7--------------7-------12--------(12)---------------------------------
---7------7-------8-------8--------8--------(12)------------------------------
------7-----7--------9-------9--------9--------(12)---------------------------
------------------------------------------------------------------------------
---9--------------------------------------------------------------------------
---7-----------7--------------------------------------------------------------]
!Кyплeт игpaeтcя пpимepнo кaк и вcтyплeниe.
> G D Em
Припев:Мoлчим мoлчим мoлчим o чём-тo cкoвaннo
> G D C
O тoм, чтo знaeм oбa ты и я
> G D Em
O тoм чeгo нe выcкaжeшь и cлoвoм
> Am Hm Em
O чём вecнoй пpoшeпчyт тoпoля
Документ
Категория
Ноты, аккорды
Просмотров
11
Размер файла
5 Кб
Теги
легион, двое
1/--страниц
Пожаловаться на содержимое документа