close

Вход

Забыли?

вход по аккаунту

?

Ленинград - Дачники

код для вставкиСкачать
Дачники
>Am Fill 1
(1)Я подыхаю на работе
>Am Fill 1
Потом бухаю, потом в блевоте
>Am Fill 1
Домой приду, а дома - ты,
>Am Fill 2
Яичница, телек, герани цветы.
>Dm
Припев:Вот будет лето -
>Am
Поедем на дачу
>Dm
В руки лопату -
>E
хуячим хуячим.
>Рифф
ДА-ЧА!!!
(2)Я подыхаю на работе,
Потом бухаю, потом в блевоте
И нету в жизни ни хуя
Этого, как его... о! счастья
Припев:Вот будет лето -
Поедем на дачу
В руки лопату -
хуячим хуячим.
ДА-ЧА!!!
Рифф:< Am>
[e |-----------------|
B |-----------------|
G |-----------------|
D |-----------------|
A |----7-6-5--------|
E |-5--------8-7-6--|]
Fill 1:< Am>
[e |-------5---------|
B |-------5---------|
G |-------5---------|
D |-------7---------|
A |-------7---------|
E |-8-7-6-5---------|]
Fill 2:< Am Dm>
[e |--------5--------|
B |--------6--------|
G |--------7--------|
D |--------7--------|
A |--------5--------|
E |-5-8-5-----------|]
Документ
Категория
Ноты, аккорды
Просмотров
15
Размер файла
1 Кб
Теги
ленинград, дачники
1/--страниц
Пожаловаться на содержимое документа