close

Вход

Забыли?

вход по аккаунту

?

Ленинград - Дикий мужчина

код для вставкиСкачать
Дикий мужчина
Основная тема:[E|-2----2----2---2----2----2----4----4----4---2-2-2-2-2-2-2|
B|--2-2--2-2--2---3-3--3-3--3----2-2--2-2--2---------------|
G|---2----2----2---4----4----4----4----4----4--------------|]
>Hm
Ты называешь меня говнюком
>Em
Да, я все время бухой
>F#
И твою жопу прилюдно хватаю
>Hm
Своей волосатой рукой
Да, мои ноги - вонючие палки
На которых все в дырках носки
А эти две кучи из пыли и грязи
Так это мои башмаки.
>Hm
Да, ты права, я - дикий мужчина
>Em
Ты права, я - дикий мужчина
>F#
Ты права, я - дикий мужчина
>Hm
Яйца, табак, перегар и щетина
-
>Hm
(1)Ты называешь меня говнюком
>Em
Да, я все время бухой
>F#
И твою жопу при людях хватаю
>Hm
Своей волосатой рукой.
!аналогично
(2)Да, мои ноги вонючие палки
На которых все в дырках носки
А эти две кучи из пыли и грязи -
Это мои башмаки.
!Могучий рифф
>Em F#
Припев:Да, ты права, я - дикий мужчина,
>Em F#
Ты права, я - дикий мужчина,
>Em F#
Ты права, я - дикий мужчина:
>Hm
Яйца, табак, перегар и щетина
!Могучий рифф
Припев:Да, ты права, я - дикий мужчина,
Ты права, я - дикий мужчина,
Ты права, я - дикий мужчина:
Яйца, табак, перегар и щетина
!Могучий рифф } 2 раза
!Могучий рифф:
> Hm
[e|---------------------------|
B|---------------------------|
G|-4---------4---------4-----|
D|---4----4----4----4----4---|
A|------5---------5--------5-|
E|---------------------------|
> Em
e|---------------------------|
B|---------------------------|
G|-4---------4---------4-----|
D|---5--2-5----5--2-5----5-2-|
A|---------------------------|
E|---------------------------|
> F#
e|---------------------------|
B|-2---------2---------2-----|
G|---3----3----3----3----3---|
D|------4---------4--------4-|
A|---------------------------|
E|---------------------------|
> Hm
e|---------------------------|
B|---------------------------|
G|-4---------4----4----------|
D|---4----4----4-------------|
A|------5--------------------|
E|---------------------------|]
Документ
Категория
Ноты, аккорды
Просмотров
14
Размер файла
2 Кб
Теги
мужчин, ленинград, дикие
1/--страниц
Пожаловаться на содержимое документа