close

Вход

Забыли?

вход по аккаунту

?

Ленинград - Привет, Джимми Хендрикс!

код для вставкиСкачать
Привет, Джимми Хендрикс!
!Когда-то, давным-давно, рок-н-ролл процветал вовсю, жил-был негр, которого звали Джимми.
!В отличии от сегодняшних афроамериканцев, а также бледнозадых дебилов, исполняющих Hip-
!Hop, Хендрикс вовсю зажигал на своей гитаре Fender и играл отличную музыку. И однажды
!сыграл он на своем stratocaster`е гимн США (естественно, в своей версии). Видимо,
!Ленинграду не понравилась музыка буржуй-песенки (мне тоже) и сыграли они старый новый
!гимн Российской Федерации, активно кося под Джимми.
!Вот таб самого гимна. Возьмите гитару, как можно больше всяких примочек, и в два часа
!ночи выставляйте комб в окно, и с диким криком: "Вставайте, патриоты", рвите струны.
!Импровизируйте, добавляйте свои соляки и получится очень круто.
[e|---------------------------1------1------------3-
h|---1-----0*----------1-----3------1------1-0-1-3-
g|-0-0-0-2-0-----2*-0--0*----2------2---0*-2*----4-
d|---2-----2-2-2-3---3-2--------0-2-3*-3---3-----5-
a|---3-----2-----3-----3-3-3--------3------3-----5-
e|-----------------------------------------------3-
> C Em F C Dm F F G
e|---0*--------------------0-----------------------------
h|---1-3-1-0-1-3*---1*-0-0-0*----1-----1------1*-0-------
g|-0-0---------4-2--2---2--0-----2*-0--0-----------2-4---
d|---2---------5--3-2------2-2-2-3---3-2-------------5---
a|---3---------5----0------2-----3-----3*-3-3-3------5---
e|-------------------------------------------------------
> C G Am Em F C F G
e|--0*------------------------------------------
h|--1-3-1-01-3*----1*-0-----0*----1*-01*-01*-01-
g|--0--------0-0-0-2---2-02-0-----2-2-2-2-2-----
d|--2-----------------------2-2-2-3---3---3-----
a|--3--------2-----0--------------3---3---3-----
e|-(0)------------------------------------------]
> C Am Em7 Am Em F
! ^
[e|-1*-0-----0*----------------------------------------------
h|-3---3-13-1-1-1-3*-1-0--0-1*----1*-0--1--------------0-1*-
g|-2--------2-----2------2--2-2-2-2---2-0*--------0*-2*--0--
d|-0--------------0---------------3-----2---------2--3---2--
a|----------0---------------0-----3-----3-3-3-----3--3---3--
e|----------------------------------------------------------]
> Dm Am Dm Am F C F C
Документ
Категория
Ноты, аккорды
Просмотров
9
Размер файла
2 Кб
Теги
ленинград, хендрикс, привет, джимми
1/--страниц
Пожаловаться на содержимое документа