close

Вход

Забыли?

вход по аккаунту

?

ЛЮБЭ - Ты неси меня река

код для вставкиСкачать
Ты неси меня река
>Am F C G [--------3------]
Ты неси меня река за крутые берега [----2-------2--]
>Am F C G [--1---1---1---1]
Где поля мои поля где леса мои леса [---------------]
>Am F C G [+--------------]
Ты неси меня река да в родные мне места [------+--------]
!<Am F E Am> 1 и 2 и 1 и 2 и
Где живет моя краса голубы у нее глаза
>F C E Am F C E Am
Припев:Как ночка темная как речка быстрая
> G F E Am Dm Am E Am
Как одинокая луна на небе ждет меня она
За туманом огонек как же он еще далек
Ты мне ветер помоги милой весточку шепни
Знаю ждет меня краса проглядела в ночь глаза
!Припев
-
> Am F C G Am
[e--0------------1---1----0---0----1---1----0-
h--1------------1-1---1--1-1---1--0-0---0--1-
g--2----------0-2--2-2-2-0--0-0-0-0--0-0-0-2-
d--2-------0-2--3--------2--------0--------2-
a--0--0-2-3-----3--------3--------2--------0-
e---------------1-----------------3----------]
>Am F
ты неси меня река
>C G
за крутые берега
> Am F
(где поля), где поля мои поля
> C G
(где леса) где леса мои леса
> Am F
(ты неси), ты неси меня река
>С G
да в родные мне места,
> Am F
(где живёт), где живет моя (моя) краса
>E Am
голубы у нее глаза
>Am F C Е Am F C E Am
Припев:Как ночка темная, как речка быстрая
>G Dm E7 Am F Dm E7 Am
как одинокая луна на небе ждет меня она
за туманом огонёк
(о-го-нёк) как же он еще далёк
(ой да-лёк) ты мне ветер помоги
милой весточку шепни
(знаю ждёт) знаю ждет меня (моя) краса
проглядела в ночь глаза
>Am F C Е Am F C E Am
Припев:Как ночка темная, как речка быстрая
>G Dm E7 Am F Dm E7 Am
как одинокая луна на небе ждет меня она
-
Oбoзнaчeния:
> Am&gt; ++ +
[e|------0-|-------------|-----|---
H|-----1--|-------------|-----|---
G|----2---|-----------0-|-----|---
D|---2----|-------0-2---|-----|---
A|- 0-----|-0-2-3-------|-3-2-|---
E|-0------|-------------|-----|---]
!Пepeбop кyплeтa: p-m-i-m-a-m-i-m (вooбщe-тo в литepaтype - этo oбoзнaчeния пaльцeв)
!Пepeбop пpипeвa: p-m-ia-m (пpaвoй pyки, нo тaк бyдeт пoнятнeй(интyитивнo): )
!Пepeбop лoкaльный:(G^) p-m-i-m-a-m (p -&gt; бacc cтpyнa (D или A, чaщe иcпoльзyeтcя A))
! (m -&gt; G-cтpyнa )
! (i -&gt; H-cтpyнa )
! (a -&gt; e-cтpyнa )
!В пecнe лoкaльный пepeбop игpaeтcя тoлькo нa <G>-aккopдe.
>Am&gt; ++ F
...|Ты нecи мeня pe|кa|
>C (G^) +
...|Зa кpyтыe бepe|гa
>Am F
...|Гдe пoля мoи, пo|ля|
>C (G^) +
...|Гдe лeca мoи, лe|ca.
>Am F
...|Ты нecи мeня pe|кa|,
>C (G^) +
...|Дa в poдныe мнe мec|тa.
>Am F
...|Гдe живeт мoя ... КPA|CA
>E7 Am
...|Гoлyбы y нee глa-| ..здecь нaчинaeтcя пepeбop кyплeтa.. |-зa
> C G E7 Am
Припев:|Кaк |нoчкa |тeмнa|я > C G E7 Am
|Кaк |peчкa |быcтpa|я
> Am Dm E7 Am
|Кaк o-ди-|нoкa|я лy|нa
> Am Dm Am E7 Am
|Нa |нeбe |ждeт мe|ня o|нa !***
Зa тyмaнoм oгoнeк.
Кaк жe oн eщe дaлeк.
Ты мнe вeтep пoмoги:
Милoй вecтoчкy шeпни.
Знaю ждeт мeня кpaca-
Пpoглядeлa в нoчь глaзa.
Ты нecи мeня peкa
Зa кpyтыe бepeгa
Ты нecи мeня peкa
Зa кpyтыe бepeгa
Гoлyбы y нee глaзa
Кaк нoчкa тeмнaя
Кaк peчкa быcтpaя
Кaк oдинoкaя лyнa
Нa нeбe ждeт мeня oнa
-
>Am F C G Am E
[e--------------------1---------0---------3------ ---
h--1------------1--1---1--1--1---1--3--3---3--1- -0-
g--2----------0-2-2-2-2-2-0-0-0-0-0-0-0-0-0-0-2- -1-
d--2-------0-2--3---------2---------0---------2- -2-
a--0--0-2-3-----3---------3---------2---------0- -2-
e---------------1------------------------------- -0-]
Пpипeв: <Am F C E G Dm E7> в кoнцe пpипeвa
[e---0----1----0------- e--------1------- ---
h---1----1----1----0-- h---3----3----3-- -1-
g--2-2--2----0-0---1-- g---0---2-2---1-- -2-
d-----------------2-2- d--0-0-0-----2-2- -2-
a-0-------2-3--------- a-2-------------- -0-
e------1---------0---- e-----------0---- ---]
>Am F
Ты нecи мeня peкa
>C G
зa кpyтыe бepeгa
> Am F
(гдe пoля), гдe пoля мoи пoля
> C G
(гдe лeca) гдe лeca мoи лeca
> Am F
(ты нecи), ты нecи мeня peкa
>C G
дa в poдныe мнe мecтa,
> Am F
(гдe живет),гдe живeт мoя(мoя)кpaca
>E
Гoлyбы y нee глaзa
>Am F C E Am F C E Am
Припев:Кaк нoчкa тeмнaя, кaк peчкa быcтpaя
> G Dm E7 Am F Dm E7 Am
кaк oдинoкaя лyнa нa нeбe ждeт мeня oнa
зa тyмaнoм oгoнек
(o-гo-нек)кaк жe oн eщe дaлек
(oй дa-лек)ты мнe вeтep пoмoги
милoй вecтoчкy шeпни
(знaю ждет)знaю ждeт мeня(мoя)кpaca
пpoглядeлa в нoчь
-
!Куплеты играются:
!1. Сначала большой палец проводит по всем струнам, начиная от
! основного тона.
!2. Затем медленно перебором I M I A I (проще, перебор бас-3,2,3,1,3).
!I - указательный палец 3 струна.
!M - средний палец 2 струна.
!A - безымяный палец 1 струна.
!* - нужно только провести по струнам, начиная от основного тона.
!F - барре на 1 ладу [133211]
> Am F
(1)Ты неси меня, река
> C G
За крутые берега,
> Am F
Где поля мои поля,
> C G
Где леса мои леса.
Ты неси меня, река
Да в родные мне места,
> Am F
Где живет моя краса…
> G* Am
Голубы у нее глаза.
Припев:(можно играть боем или перебором)
> F C G Am
Как ночка темная,
> F C G Am
Как речка быстрая,
> C F G Am
Как одинокая луна
> F C G Am*
На небе ждет меня она.
(2)За туманом огонек -
Как же он еще далек.
Ты мне, ветер, помоги -
Милой весточку шепни.
> Am F
Знаю ждет меня моя краса -
> G* Am
Проглядела в ночь глаза.
!Припев
Проигрыш:<Am>, <F>, <C>, <G>, <Am>, <F>, <C>, <G>, <Am>, <F>
> C G Am F
Концовка:Ты неси меня, река, за крутые берега! } 2 раза
>G* Am
Голубы у нее глаза.
!Припев
-
!Куплет можно играть боем, а можно так:
> Am F C G Am
[e--0------------1---1----0---0----1---1----0-
h--1------------1-1---1--1-1---1--0-0---0--1-
g--2----------0-2--2-2-2-0--0-0-0-0--0-0-0-2-
d--2-------0-2--3--------2--------0--------2-
a--0--0-2-3-----3--------3--------2--------0-
e---------------1-----------------3----------]
!Есть еще один вариант игры куплета:
!бас-3-1+2-3
> Am F C G Am E
[e--------------------1---------0---------3------ ---
h--1------------1--1---1--1--1---1--3--3---3--1- -0-
g--2----------0-2-2-2-2-2-0-0-0-0-0-0-0-0-0-0-2- -1-
d--2-------0-2--3---------2---------0---------2- -2-
a--0--0-2-3-----3---------3---------2---------0- -2-
e---------------1------------------------------- -0-]
>Am F
(1)Ты неси меня река
>C G
За крутие берега
> Am F
(где поля), где поля мои поля
> C G
(где леса) где леса мои леса
> Am F
(ты неси), ты неси меня река
>С G
Да в родные мне места,
> Am F
(где живёт), где живет моя(моя)краса
>E Am
Голубы у нее шлаза
>Am F C Е Am F C E Am
Припев:Как ночка темная, как речка быстрая
> G Dm E7 Am F Dm E7 Am
Как одинокая луна на небе ждет меня она
(2)За туманом огонёк
(о-го-нёк)как же он еще далёк
(ой да-лёк)ты мне ветер помоги
Милой весточку шепни
(знаю ждёт)знаю ждет меня(моя)краса
Проглядела в ночь глаза
>Am F C Е Am F C E Am
Припев:Как ночка темная, как речка быстрая
> G Dm E7 Am F Dm E7 Am
Как одинокая луна на небе ждет меня она
-
Проигрыш:<Am F>
1|--0------------1-
2|--1------------1-
3|--2----------0-2-
4|--2-------0-2--3-
5|--0--0-2-3-----3-
6|---------------1-
! Проигрыш
(1)ты неси меня река
>C G
за крутие берега
! Проигрыш
(где поля), где поля мои поля
> C G
(где леса) где леса мои леса
! Проигрыш
(ты неси), ты неси меня река
>С G
да в родные мне места,
!Проигрыш
где живет моя краса
>E
голубы у нее глаза
>Am F C Е Am F C E Am
Припев:Как ночка темная, как речка быстрая
> G Dm E7 Am F Dm E7 Am
как одинокая луна на небе ждет меня она
(2)за туманом огонёк
как жеж он еще далёк
ты мне ветер помоги
молой весточку шепни
знаю ждет меня краса
проглядела в ночь глаза
!Припев
!дальше, после припева идет проигрыш
>G C G Am Em F C G C G Am Em F C G C
Ты неси меня река за крутые берега
>G C G Am Em F C G C G Am Em F
Ты неси меня река за крутые берега
>E
Голубы у неё глаза.
!Дольше припев играется тихим перебором
!Припев
-
Куплет:< Am F C G>
[e|---------------|---------1-------|---------0-------|---------3-------|
H|-1-------------|-1---1-------1---|-1---1-------1---|-3---3-------3---|
G|-2-----------0-|-2-2---2---2---2-|-0-0---0---0---0-|-0-0---0---0---0-|
D|-2--------0-2--|-3---------------|-2---------------|-0---------------|
A|-0---0-2-3-----|-3---------------|-3---------------|-2---------------|
E|---------------|-1---------------|-----------------|-3---------------|]
>Am F
Ты неси меня, река
> C G
За крутые берега,
> Am F
Где поля мои поля,
> C G
Где леса мои леса.
Ты неси меня, река
Да в родные мне места,
> Am F
Где живет моя краса...
> Е7 Am
Голубы у нее глаза.
> F C Е7 Am
Как ночка темная,
> F C Е7 Am
Как речка быстрая,
> А7 Dm E7 Am
Как одинокая луна
> Dm Am E7
На небе ждет меня она.
За туманом огонек -
Как же он еще далек.
Ты мне, ветер, помоги -
Милой весточку шепни.
> Am F
Знаю ждет меня моя краса -
>E7 Am
Проглядела в ночь глаза.
!Припев
Проигрыш:<G | C | G | Am | Em | F | C | G | C | C>
> G Am Em F C G C C
Ты неси меня, река, за крутые берега!
> G Am Em F
Ты неси меня, река, за крутые берега!
>E7 Am
Голубы у нее глаза.
!Припев
!Комментарий автора подбора к песне:
!Вариант перебора для припева: бас - 3стр - 2+1стр - 3стр
Документ
Категория
Ноты, аккорды
Просмотров
40
Размер файла
12 Кб
Теги
неси, любэ, река
1/--страниц
Пожаловаться на содержимое документа