close

Вход

Забыли?

вход по аккаунту

?

Люмен - Сколько

код для вставкиСкачать
"Три пути"
Сколько?
Вступление:<Em D Em D C Hm C Hm>
>Em D
Меня уносят моря
>C
Моих надежд, что стоят
>Hm
И не дают отступить
И не хотят умирать…
Тошнотным глянцем страниц
Бьёт по провалам глазниц,
Я в сотый раз промолчу,
Что мне наплевать
>С Hm
На вечность холодов
>Em
И бесполезность снов
>D
В которых я летал…
Крик перелётных птиц
По нервам сотней спиц
Напомнит что я знал
>C Hm
Сколько было уже боли. Сколько…
>Em D
Горько. Каждый день так странно горько,
Но только роли не изменишь, и только…
Сколько будет ещё боли? СКОЛЬКО?
Песчаный берег души
В которой спрятал ножи.
Луна зовёт меня выть
И не даёт тихо жить…
Табачным дымом под дых
Я застонал и притих
Сырой бетон под щекой
Не даст мне забыть
Про вечность холодов
И бесполезность снов
В которых я летал…
Крик перелётных птиц
По нервам сотней спиц
Напомнит что я знал
Сколько было уже боли. Сколько…
Горько. Каждый день так странно горько,
Но только роли не изменишь, и только…
Сколько будет ещё боли? СКОЛЬКО?
-
!За правильность не отвечаю...
!Вступление (играется 2 раза, 0:09 – 0:45)
| - - - - - - - - - - - - - - - - - - - - - - - - - - - |
| - - - - - - - - - - 0 - - - - - - - - - - -0 - - - - |
| - - - - - - -0 - - - - - - - - -0- - - - - - - | } 2 раза
| - - - - - 5 - -5 - - - - - - - 4 - - 4 - - - - - - |
| - - - -7 - - - - - - - - - 5 - - - - - - - - - |
| - - - - - - - - - - - - - - - - - - - - - - - - - - - |
| - - - - - - - - - - - - - - - - - - - - - - - - - - - -|
| - - - - - 3 - - - 0 - - - - - - - - - - - - - - - - - -|
| - - - - - - 0 - - - -0 - - - - - 0 - - 4 – 0 - - -| } 2 раза
| - - - 2 - - - 2 - - - -2 - - 4 - - 4 - - - - 4 - -|
| - - 3 - - - - - - - - - - -2 - - - - - - - - - - - - -|
| - - - - - - - - - - - - - - - - - - - - - - - - - - - -|
!Куплет:
| - - - - - - - - - - - - - - - - - - - - - - - - - - - - - - - - - - - - - - - - - - - - - - - - - - - - - - -|
| - - - - - - - - - - 0 - - - - - - - - - - -0 - - - -- - - - - 3 - - - 0 - - - - - - - - - - - - - - - - - -|
| - - - - - - -0 - - - - - - - - -0- - - - - - -- - - - - - - - 0 - - - -0 - - - - - 0 - - 4 – 0 - - -|
| - - - - - 5 - -5 - - - - - - - 4 - - 4 - - - - - -- - - 2 - - - 2 - - - -2 - - 4 - - 4 - - - - 4 - -|
| - - - -7 - - - - - - - - - 5 - - - - - - - - - - - 3 - - - - - - - - - - - - - -2 - - - - - - - - - - - - -|
| - - - - - - - - - - - - - - - - - - - - - - - - - - - - - - - - - - - - - - - - - - - - - - - - - - - - - - --
!А припев так же, только в другом порядке: <С Hm Em D>
-
!Это играет электруха на протяжении всей песни:
1|---8---------8---------8------7------7-----7-----------------
2|-------5---------5--------5------5-----5------5--------------
3|-----------5---------5--------------5-----5----------------
!Возможны вариации с перебором но в основном играется эта тема
Документ
Категория
Ноты, аккорды
Просмотров
19
Размер файла
3 Кб
Теги
люмен, сколько
1/--страниц
Пожаловаться на содержимое документа