close

Вход

Забыли?

вход по аккаунту

?

Маша и медведи - Любочка

код для вставкиСкачать
Ћюбочка
Verse:
<
G
E5
B
B>
3|-----------------0---0-0-----0- -2-----0---------2-----0---
--4|-5---5-4-----5---2---2-1-----2- -4-----------4---4----------4
5|-5---5-5-----5---2---2-2-----2- -2---------------2----------6|-3---3-3-----3----------------- ---------------------------->
G
E5
B
B
3|-----------------0---0-0-----0- -2-----0---------2-----0---
--4|-5---5-4-----5---2---2-1-----2- -4-----------4---4----------4
5|-5---5-5-----5---2---2-2-----2- -2---------------2----------6|-3---3-3-----3----------------- ---------------------------->
C
Cm
G
2|-----------------4---4-4-----4- ---------------------------
----3|-5---5-4-----5---5---5-4-----5- -------------------0---0--0---0
4|-5---5-5-----5---5---5-5-----5- -5-----4-----5\--0---1---2--1-5|-3---3-3-----3----------------- -5-----5-----5----------------6|------------------------------- -3-----3-----3---------------->
D
C
3|-----7-7---------5------------4|-----7-7---------5------------5|-5---5-----------3------------3|---0---0---0---0---0---0---0---0 } x? раз, потом <G>
4|-0---1---2---1---0---1---2---1--
>
>
>
>
>
>
—
—иненька¤ юбочка
E
Ћенточка в косе
C
то не знает Ћюбочку
E
Ћюбу знают все
F
ƒевочки на празднике
C
—оберутс¤ в круг
>
G
F
јх как танцует Ћюбочка
>
C E
C E
Ћибе либе аморе аморе
Ћиба либа любовь
—иненька¤ юбочка, ленточка в косе-е.
то не знает Ћюбочку? Ћюбу знают все-е.
ƒевочки на празднике собирутс¤ в круг,
јх, как танцует Ћюбочка ...
р”житс¤ и юбочка и ленточка в косе-е.
¬се гл¤д¤т на Ћюбочку, радуютс¤ все-е.
Ќо если к этой Ћюбочке вы придЄте в до-ом,
“о там вы эту девочку, ”-”’...
—иненька¤ юбочка, ленточка в косе-е.
Ќу кто не знает Ћюбочку? Ћюбу знают все-е.
—лучаетс¤, что девочки бывают очень грубыми,
Ќо не об¤зательно... ј-ј’...
Verse:
<
G
E5
B
B>
3| -----------------0---0-0-----0- -2-----0---------2-----0--
---4| -5---5-4-----5---2---2-1-----2- -4-----------4---4----------4
5| -5---5-5-----5---2---2-2-----2- -2---------------2----------6| -3---3-3-----3----------------- ----------------------------|
|
>
|
|
|
|
|
|
|
|
|
|
|
|
|
|
G
E5
B
B
3| -----------------0---0-0-----0- -2-----0---------2-----0--
---4| -5---5-4-----5---2---2-1-----2- -4-----------4---4----------4
5| -5---5-5-----5---2---2-2-----2- -2---------------2----------6| -3---3-3-----3----------------- ----------------------------|
|
>
|
|
|
|
|
|
|
|
|
|
|
|
|
|
C
Cm
G
2| -----------------4---4-4-----4- --------------------------
-----3| -5---5-4-----5---5---5-4-----5- -------------------0---0--0---0
4| -5---5-5-----5---5---5-5-----5- -5-----4-----5\--0---1--2---1--
5| -3---3-3-----3----------------- -5-----5-----5----------------6| ------------------------------- -3-----3-----3----------------|
|
>
Verse1:
Chorus:
|
|
|
|
|
|
|
|
|
|
|
|
|
|
D
C
3| -----7-7---------5------------4| -----7-7---------5------------5| -5---5-----------3------------|
|
|
|
|
|
|
|
Cинeнькa¤ юбoчкa, лeнтoчкa в кoce-e.
тo нe знaeт Ћюбoчкy? Ћюбy знaют вce-e.
ƒeвoчки нa пpaздникe coбиpyтc¤ в кpyг,
Ax, кaк тaнцyeт Ћюбoчкa...
<G B> } x4
Verse2:
pужитc¤ и юбoчкa и лeнтoчкa в кoce-e.
вce гл¤д¤т нa Ћюбoчкy, paдyютc¤ вce-e.
Ho ecли к этoй Ћюбoчкe вы пpидЄтe в дo-oм,
“o тaм вы этy дeвoчкy, ”-”X...
!
Chorus
Verse3:
Cинeнькa¤ юбoчкa, лeнтoчкa в кoce-e.
Hy ктo нe знaeт Ћюбoчкy? Ћюбy знaют вce-e.
Cлyчaeтc¤, чтo дeвoчки бывaют oчeнь гpyбыми,
Ho нe oб¤зaтeльнo... A-AX...
!
Chorus
Outro:
3| ---0---0---0---0---0---0---0---0 } x? paз, пoтoм <G>
4| -0---1---2---1---0---1---2---1-|
|
|
|
|
|
|
|
Документ
Категория
Ноты, аккорды
Просмотров
14
Размер файла
4 Кб
Теги
любочка, маша, медведь
1/--страниц
Пожаловаться на содержимое документа