close

Вход

Забыли?

вход по аккаунту

?

Наив - Рок

код для вставкиСкачать
Рок
>Am Dm
Постоянно зажигать
> F
Никогда не отдыхать
> C
Веселиться, тусовать весь день
> G
Всю ночь бодриться
Много денег поднимать,
Ёще больше пропивать
Порошки употреблять
И на смерть не убиться
>C F C F
Припев:Все это происходит регулярно,
>C F C F
Когда ты в группе супер популярной.
Сочинять одни хиты,
Чтоб понятно для братвы,
Без залеча, без ботвы,
Без всякого отстоя
Никогда не унывать
Ожиданья воплощать,
Вот такая жизнь у
Рок-н-рольного героя
!Припев
>C F C F
Хор:Мечты сбываются, и не сбываются
>C F C F
Успех приходит к нам порой всего на час
!Припев
-
!Басовая табулатура
!Пopядoк:
!Verse
!Chorus
!Verse
!Chorus } x2
!Bridge
!2nd Verse
!Chorus } x2
Verse:[G|---------------------------------------------------|
D|---------------------------------------------------|
A|-------3-3---3-3-----0-0---0-0-------------3-3-5-5-|
E|-3---------------0-0-----------0-0-1-1-------------|
G|---------------------------------------------------------|
D|---------------------------------------------------------|
A|-----0-0-----3-3---3-3-----0-0---0-0---------------------|
E|-3-------3-3-----------0-0-----------0-0-1-1-----3-3-5-5-|
Chorus:G|----------------------------------------------------------------------|
D|----------------------------------------------------------------------|
A|---------00002222-3333333333332222-0000000000002233-6666666655555555--|
E|-33333333-------------------------------------------------------------|
Bridge:G|--------------------------------------------------------------
D|--------------------------------------------------------------
A|---------------3-3-3---7---------------------3-7-7-7---3-7----
E|-3-3-3-2-1-----------5-------3-3-3-2-1-----5---------5--------
G|------------------------------------------------------------------------
D|------------------------------------------------------------------------
A|-------------------3-3-3---7-7777777--------------------3-7-7-7---3-7---
E|-3-3-3-2-1-1111111-------5-----------3-3-3-2-1-11111--5---------5-------]
!2nd Verse: Пepвyю пoлoвинy кyплeтa бacы нe вcтyпaют.
[G|----------------------------------------------|
D|----------------------------------------------|
A|----5-------3--33--3-2-0--7-00--3-6--5--------|
E|-3----33--3-----------------------------10/3--|]
-
!<G C> (можно <Cadd9> [x32033])
(1)Постоянно зажигать
> Am
Никогда не отдыхать
> F
Веселиться, тусовать весь день
> C (D) G
Всю ночь бодриться
Много денег поднимать,
Ёще больше пропивать
Порошки употреблять
И на смерть не убиться
!Припев (аккорды те же)
> G C
Все это происходит регулярно,
>Am F C (D)
Когда ты в группе супер популярной.
(2)Сочинять одни хиты,
Чтоб понятно для братвы,
Без залеча, без ботвы,
Без всякого отстоя
Никогда не унывать
Ожиданья воплощать,
Вот такая жизнь у
Рок-н-рольного героя
-
!Для электрухи.
[--------| -------| ------------------------| ------------------------|
--------| -------| ------------------------| ------------------------|
--------| ----55-| --55--------------------| ------------------------|
----5---| ----55-| --55---22---77----------| ---77---22---33---------|
----5---| ----33-| --33---22---77----------| ---77---22---33---------|
----3---| -------| -------00---55----------| ---55---00---11---------|]
Пост. зажигать Никогда не отдыхать Веселиться, тусовать весь день
[------------------|
------------------|
---77-------------|
---77--44---55----|
---55--44---55----|
-------22---33----|]
Всю ночь бодриться
[-------------------------| ------------------------|------------------------|
-------------------------| ------------------------|------------------------|
---------------55--------| --55--------------------|------------------------|
-------55--77--55--------| --55---22---77----------|---77---22---33---------|
-------55--77--33--------| --33---22---77----------|---77---22---33---------|
-------33--55------------| -------00---55----------|---55---00---11---------|]
Много денег поднимать Еще больше пропивать Порошки употреблять
[-----------------------|
-----------------------|
---77------------------|
---77----44------------|
---55----44------------|
---------22------------|]
И на смерть не убиться
!Chorus:
[---------------------------|
---------------------------|
-------------5-------------|
--5----------5-------------|
--5----------3-------------|
--3------------------------|]
Все это происходит регулярно
[-----------------------------------|
-----------------------------------|
-----------5-----------------------|
--7--------5--------33--33---------|
--7--------3--------33--33---------|
--5-----------------11--11---------|]
Когда ты в группе супер популярной
!Во 2-м припеве:
[---------------------------|
---------------------------|
-------------5-------------|
--5----------5-------------|
--5----------3-------------|
--3------------------------|]
Все это происходит регулярно
[------------------------------|
------------------------------|
-----------5--------7---------|
--7--------5--------7---------|
--7--------3--------5---------|
--5---------------------------|]
Когда ты в группе супер популярной
!и т. д.
-
!Играть все только на барэ
>G C C Em Am
Постоянно зажигать, никогда не отдыхать,
> Am Em F C D
Веселиться, тусовать весь день, всю ночь бодриться,
>G Am G C C Em Am
Много денег поднимать, еще больше пропивать,
> Am Em F C D
Порошки употреблять и насмерть не упиться.
>G C
Все это происходит регулярно,
>Am D# D
Когда ты в группе супер-популярной.
Сочинять одни хиты, чтоб понятно для братвы,
Без ???, без ботвы, без всякого отстоя,
Никогда не унывать, ожиданья воплощать,
Вот какая жизнь у рок-н-рольного героя.
Все это происходит регулярно,
Когда ты в группе супер-популярной.
!2 раза
!проигрыш
|----------------|----------------|----------------|
|----------------|----------------|----------------|
|----------------|----------------|----------------|
|----------------|-------0--------|5---5--------7--|
|5---5----4---3--|---1-3---3-1----|3---3----7---5--|
|3---3----2---1--|-3-----------3--|---------5------|
!Без бары кроме <D#> и <D>.
!На <C> и <Am> держать 3 лад I струны.
>G С
Мечты сбываются,
>Am D# D
И не сбываются,
Успех приходит к нам,
Порой всего на час.
Все это происходит регулярно,
Когда ты в группе супер-популярной.
Документ
Категория
Ноты, аккорды
Просмотров
20
Размер файла
7 Кб
Теги
наив, рок
1/--страниц
Пожаловаться на содержимое документа