close

Вход

Забыли?

вход по аккаунту

?

Мендельсон - Свадебный марш

код для вставкиСкачать
—вадебный марш
[E||-----------------------|------------------------|-----------------------|
B||-----------------------|------------------------|-----------------------|
G||-----------------------|------------------------|-----------------------|
D||-----------------------|------------------------|-----------------------|
A||--------------3--3--3--|--3------------3--3--3--|--3-----------3--3--3--|
E||-----------------------|------------------------|-----------------------|
------------------------------|--------------------------|-8--------7---------|
------------------------------|--------------------------|-7--------7------7--|
------------------------------|--0----0--0--0--0----0----|-5--------8---------|
--2----2--2--2--2----2--2--2--|--2-------------2----2----|--------------------|
--3-------------3-------------|--3-------------3---------|-0------------------|
------------------------------|--------------------------|----------7---------|
--5------3--1---------|----------------------|--0---------------0--3--|
--0---------3----3----|--1--------3-------3--|--1------------1--------|
--0---------2----2----|--0--------0----0-----|--0----------0----------|
------------0----3----|--2--------3----------|----------2-------------|
----------------------|-----------2----------|--3----3----------------|
--0-------------------|--3-------------------|------------------------|
--8--------7---------|--5------3--1---------|-----------0------0--|
--7--------7------7--|--0---------3----3----|--1--------1---3-----|
--5--------8---------|--0---------2----2----|--0--------0---0-----|
---------------------|------------0----3----|--2------------3-----|
--0------------------|----------------------|---------------2-----|
-----------7---------|--0-------------------|--3--------3---------|
-------------------------|------------------------------|
--3--------1-------------|----------------1-------------|
--0--------0-------------|-------------0----------------|
--3--------2-------------|----------2-------------------|
--2--------3----3--3--3--|--3----3-------------3--3--3--|
-------------------------|------------------------------|
----------------0-------------|----------------0----------0-|
-------------1----------------|-------------1----------1----|
----------0-------------------|----------0----------0-------|
-------2----------------------|-------2---------------------|
--3------------------3--3--3--|--3--------------------------|
------------------------------|-----------------------------|
--3----------0--3-------0--3--|--8--------7---------|--5-----3--1---------|
----------1----------1--------|--7--------7------7--|--0--------3----3----|
-------0----------------------|--5--------8---------|--0--------2----2----|
------------------------------|---------------------|-----------0----3----|
--3---------------------------|--0------------------|---------------------|
------------------------------|-----------7---------|--0------------------|
----------------------|--0----------------0--3--|--8-------7---------|
--1--------3-------3--|--1-------------1--------|--7-------7------7--|
--0--------0----0-----|--0----------0-----------|--5-------8---------|
--2--------3----------|----------2--------------|--------------------|
-----------2----------|--3----3-----------------|--0-----------------|
--3-------------------|-------------------------|----------7---------|
--5------3--1---------|-----------0-------0--|------------------------|
--0---------3----3----|--1--------1----3-----|--3--------1------------|
--0---------2----2----|--0--------0----0-----|--0--------0------------|
------------0----3----|--2-------------3-----|--3--------2------------|
----------------------|----------------2-----|--2--------3---3--3--3--|
--0-------------------|--3--------3----------|------------------------|
------------------------------|----------------0------------|
----------------1-------------|-------------1---------------|
-------------0----------------|----------0------------------|
----------2-------------------|-------2---------------------|
--3----3-------------3--3--3--|--3------------------3--3--3-|
------------------------------|-----------------------------|
----------------0----------0--|--3----------0--3-------0--3-|
-------------1----------1-----|----------1----------1-------|
----------0----------0--------|-------0---------------------|
-------2----------------------|-----------------------------|
--3---------------------------|--3--------------------------|
------------------------------|-----------------------------|
---------------------|--0-------------------|------------------0--|
--1--------1------1--|--1----3----0---------|---------1--1--------|
--0--------0---------|------------0----0----|--0---------0--------|
--2--------2---------|--0---------3---------|--2---------2--------|
--3--------3---------|----------------------|--3------------------|
---------------------|--3---------3---------|---------------------|
--0-------------------|-------------------3--|--3--------1-----0--|
--1----3----0---------|---------1--1---------|--1--------1--------|
------------0----0----|--0---------0---------|--2--------2--------|
--0---------3---------|--2---------2---------|--3--------3--------|
----------------------|--3-------------------|--------------------|
--3---------3---------|----------------------|--------------------|
----------0-------------|-------3----5----7----|--8--------7--------|
--3----2-----3-------1--|--0--------------0----|--7--------7-----7--|
--2----------2----2-----|--0----0--------------|--5--------8--------|
------------------------|--0---------7---------|--------------------|
------------------------|----------------------|--0-----------------|
--1---------------------|--3-------------------|-----------7--------|
--5------3--1---------|----------------------|--0---------------0--3--|
--0---------3----3----|--1--------3-------3--|--1------------1--------|
--0---------2----2----|--0--------0----0-----|--0----------0----------|
------------0----3----|--2--------3----------|----------2-------------|
----------------------|-----------2----------|--3----3----------------|
--0-------------------|--3-------------------|------------------------|
--8--------7---------|--5------3--1---------|-----------0------0--|
--7--------7------7--|--0---------3----3----|--1--------1---3-----|
--5--------8---------|--0---------2----2----|--0--------0---0-----|
---------------------|------------0----3----|--2------------3-----|
--0------------------|----------------------|---------------2-----|
-----------7---------|--0-------------------|--3--------3---------|
--------------------|------------------||
--3--------1--------|------------------||
--0--------0--------|------------------||
--3--------2--------|------------------||
--2--------3--------|------------------||
--------------------|------------------||]
Документ
Категория
Ноты, аккорды
Просмотров
12
Размер файла
7 Кб
Теги
марш, мендельсон, свадебный
1/--страниц
Пожаловаться на содержимое документа