close

Вход

Забыли?

вход по аккаунту

?

Многоточие - В жизни так бывает

код для вставкиСкачать
В жизни так бывает
Intro и припев:[E--7-7-7---10-10--8------8-7-5------7-5--------------5-7-7/8\7-
B----------------------------------------8---------8-----------
G------------------------------------------7-9-7-9-------------
D--------------------------------------------------------------
A--------------------------------------------------------------
E--------------------------------------------------------------]
> Em
(1)Зачем я помню те дни,
Когда с тобой мы окунались
> С
В море солнечной любви,
Когда мы чувствами игрались.
> D
Это было как в сказке,
Вся жизнь перед глазами
> Em
Казалось была заполнена
Не сбывшимися мечтами
> Em
А ты сидела рядом,
Меня гладила рукой
> C
И тихо говорила:
"Я всегда буду с тобою"
> D
И тебе почему-то я верил
Хотя знал, что все проходит
> Em
Но влюбленные глаза
Не видят того что происходит
> Em
Обманутые счастьем,
Так боятся его потерять
> C
Что в тряске над ним
Перестают его ощущать
> D
И в скоре я сидел один
На краюшке надежды
> Em
С мечтами о том,
Что может будет все как прежде.
> Em
Но ужасающая реальность
Мою остудила кровь
> C
И казалось на веки
> D
Я забыл что значит любовь
> Em
...Что значит любовь
>Em С
Припев:В жизни так бывае-е-ет
> С Em
Что любовь прихо-одит вно-овь
Только...
>Em C
Пламя догорае-е-ет
> D Em
И не бъё-ётся в ве-енах кро-овь
>Em
(2)Да так бывает, любовь умирает,
> C
Но вроде бы и манит опять, манит
> D
И непонятно куда же ушло все тепло
>Em
Холод в глазах, ветер в словах.
Страх перед болью от старых потерь
Откровенной любви, захлопнута дверь
И теперь, когда в сердце нет больше огня
Теряется смысл каждого дня
Дрожь и озноб от лживых ветров
Сметающих доверие к теплу нежных слов
И голос он вроде бы и милый и родной
Почему нет любви, ответ простой:
Припев:В жизни так бывае-е-ет
Что любовь прихо-одит вно-овь
Только...
Пламя догорае-е-ет
И не бъё-ётся в ве-енах кро-овь
-
1|-0--------------------------------
2|---0-0---3-3----------------------
3|-------4-----5--5-4-2--4-2-0------
4|------------------------------0-2-
5|----------------------------------
6|-0--------------------------------
-
!В нaчaлe пecни двa paзa пoвтopяeтcя:
3)----2/4--4--4----4/7--7----5------5--4--2------4--5--4------
4)---------------------------------------------------------------0--2
!Дaлee:
3)----2/4--4--4----4/7--7----5------5--4--2------4--5--4---------------0--2--0--4/7/4
4)---------------------------------------------------------------0--2--0--2
!В пpинципe тaк жe кaк и в пpeдидyщeм пoдбope, тoлькo eщё идyт
!пepexoды [2/4] a нe пpocтo [4], [4/7] a нe пpocтo [7] и в кoнцe нe [4/5/4] a [4/7/4].
Документ
Категория
Ноты, аккорды
Просмотров
12
Размер файла
3 Кб
Теги
бывает, многоточие, жизнь
1/--страниц
Пожаловаться на содержимое документа