close

Вход

Забыли?

вход по аккаунту

?

Моцарт Вольфгант Амадей - Маленькая пьеса в С

код для вставкиСкачать
Маленькая пьеса в С
[E||---3--|--0-----------|-------------|--------------|------------|
B||------|-----1--0--3--|--1----------|--------0--0--|--1---------|
G||*-----|--------------|-----0----0--|--2--2--------|---------0--|
D||*-----|--------0-----|--2-------2--|--3--3--0--0--|--2------2--|
A||------|--3-----------|-------------|--------------|--3---------|
E||------|--------------|-------------|--------------|------------|
--------------|---------0--|--------------|-------------|--------------|
--------0--0--|--1---------|--3--------1--|--0----------|-----------0--|
--2--2--------|------------|-----0--------|-----0----0--|--2--1--2-----|
--3--3--0--0--|--2---------|--------4-----|-------------|--------0-----|
--------------|--3------3--|--2-----0-----|----------2--|--3-----------|
--------------|------------|--------------|--3----------|--------------|
------------|----------------|----------||---3--|--3-----------|-------------|
------------|-------------0--|----------||------|-----5--5--2--|--2----------|
--0------0--|--2-1-2-1-2-----|--0------*||*-----|--------------|-------0--2--|
--2---------|-------------0--|---------*||*-----|--------------|-------------|
---------2--|--3-------------|----------||------|--------------|--0----------|
------------|----------------|--3-------||------|--------------|-------------|
--------0-----|--1------1--|--1-----------|-------------|--------------|
--3-----------|------------|-----3--3--0--|--0----------|--1-----3-----|
-----2-----2--|------------|--------------|----------0--|-----0-----0--|
--3-----------|--0---------|--------------|-------3-----|--2-----------|
--------4-----|------------|--------------|-------------|--------2-----|
--------------|------------|--------------|--3----------|--------------|
--0------3--|--0-----------|-------------|--------------|------------|
------------|-----1--0--3--|--1----------|--------0--0--|--1---------|
------------|--------------|-----0----0--|--2--2--------|---------0--|
------------|--------0-----|--2-------2--|--3-----0-----|--2------2--|
--3---------|--3-----------|-------------|--------------|--3---------|
------------|--------------|-------------|--------------|------------|
--------------|------------|-----------0--|------------|-------------0--|
--------0--0--|--1------1--|--3--2--3-----|--1------1--|--3-2-3-2-3-----|
--2--2--------|------------|--------0-----|--2---------|-------------0--|
--3-----0-----|--2------2--|--3-----------|---------2--|--3-------------|
--------------|--3---------|--------------|------------|----------------|
--------------|------------|--------------|------------|----------------|
----------||
--1-------||
---------*||
---------*||
--3-------||
----------||]
Документ
Категория
Ноты, аккорды
Просмотров
14
Размер файла
3 Кб
Теги
вольфгант, пьес, амадей, моцарт, маленькая
1/--страниц
Пожаловаться на содержимое документа