close

Вход

Забыли?

вход по аккаунту

?

Моцарт Вольфгант Амадей - Симфония №40 g-moll

код для вставкиСкачать
Симфония №40 g-moll
1|--------------------------------------------------------------------|
2|--4-3-3---4-3-3---4-3-3---11~--11-10-8---8-6-4----4-3-1-1-----------|
3|--------------------------------------------------------------------|
4|--------------------------------------------------------------------|
5|--------------------------------------------------------------------|
6|--------------------------------------------------------------------|
1|--------------------------------------------------------------------|
2|--3-1-1---3-1-1---3-1-1---10~--10-8-7---7-4-3----3-1----------------|
3|-----------------------------------------------------3-3------------|
4|--------------------------------------------------------------------|
5|--------------------------------------------------------------------|
6|--------------------------------------------------------------------|
1|--------------------------------------------------------------------|
2|--11-10-10-13---7-10-8-3~---11-10-10-13---7-10-8~--11~--10-8-6-4-3--|
3|--------------------------------------------------------------------|
4|--------------------------------------------------------------------|
5|--------------------------------------------------------------------|
6|--------------------------------------------------------------------|
1|--------------------------------------------------------------------|
2|--------------------------------------------------------------------|
3|--------6----5-3-2---7----6---7---6---7---6----7-6-7-6-7------------|
4|--4-5-7-8----------5-4----5---4---5---4---5----4-5-4-5-4------------|
5|--------------------------------------------------------------------|
6|--------------------------------------------------------------------|
Документ
Категория
Ноты, аккорды
Просмотров
10
Размер файла
2 Кб
Теги
molly, вольфгант, симфония, амадей, моцарт
1/--страниц
Пожаловаться на содержимое документа