close

Вход

Забыли?

вход по аккаунту

?

Моцарт Вольфгант Амадей - Рэквием в Dm, Лакримоса К.626

код для вставкиСкачать
Рэквием в Dm, Лакримоса К.626
! Q = 65
|-------------------------|---------------------------|
|-------------------2-----|-3-------------------------|
|-------2-----0-----0-----|-2------------------0------|
|-3-----3-----2-----2-----|-3------2-----0------------|
|-5-----------------------|--------4-----0-----0------|
|-------------------------|---------------------------|
|
|---------5-6---------8-6-|---5-10---6-3---------5----|
|-------------------------|----------------5-6-----5--|
|---6-7---------7-6-------|---------------------------|
|-------------------------|---------------------------|
|-------------------------|---------------------------|
|-------------------------|---------------------------|
|---------1---------------|---------1----------------|
|-3---3-----3-3-----2-----|-3---3-----3-3-----2------|
|-2-2---------2---2-0---0-|-2-2---------2---2-0---0--|
|-3-----3-----0-0---2-2---|-3-----3-----0-0---2-2----|
|-------------------------|--------------------------|
|-------------------------|--------------------------|
|
|---------5-6---------6-5-|---------5-6---------6-5--|
|-------------------------|--------------------------|
|---6-7---------7-6-------|---6-7---------7-6--------|
|-------------------------|--------------------------|
|-------------------------|--------------------------|
|-------------------------|--------------------------|
|-------------------------|--------------------------|
|-------------------------|-------------------0---3--|
|-------------------0---0-|-2---2-------2---2-0-0----|
|-0---0-2---2-0---0-2-2---|-3-3-------0-2-2---0------|
|-0-0---4-4---0-0---3-----|-3-------2---0------------|
|-1-----5-----5-----------|-------4------------------|
|
|-------------------------|--------------------------|
|-------------------------|---------------1-----3----|
|-------------------------|---2-----4-------2-----0--|
|---0-----2-----3-----5---|-----3-----2--------------|
|-----0-----0-----5-----3-|--------------------------|
|-------------------------|--------------------------|
|-------------------------|--------------------------|
|-------------------------|-0-----3---3-3---3-2---2--|
|-0---0-0---0-2---2-2---2-|-0---0---2-----2-----0----|
|---2-----2---3-3---1-1---|-0-0---3-----3-----2------|
|-3-----3-----3-----3-----|--------------------------|
|-------------------------|--------------------------|
|
|---------------------2---|---3-----5-----5----------|
|---5-----5-----6---------|--------------------------|
|-----5-----5-----5-----2-|-----4-----3-----2---2----|
|-------------------------|--------------------------|
|-------------------------|-----------------------0--|
|-------------------------|--------------------------|
|---------------------1---|---------------------------|
|-----------------------3-|-2---2---3--5---5-3---3----|
|-2---2---3-2-2---2-------|-0-0--------3-3---3-3------|
|-2-2---------3-3---------|-2-----2----3-----3-----3--|
|-0-----0-----0-----0-----|---------------------------|
|-------------------------|---------------------------|
|
|---------------------1---|---------------------------|
|-----------------------3-|---------3\-5-----------3--|
|---------3-2-------------|---0------------2----------|
|---2-----------0---------|----------------------3----|
|-----0-----------0-------|-----1------------0--------|
|-------------------------|---------------------------|
|---------3---------------|---------1----------------|
|-4---4-----4-4---4-3---3-|-3---3-----3-5---5-3------|
|-3-3---------3-3---3-3---|-2-2---------3-3---2-2-1--|
|-1-----1-----1-----3-----|-3-----3-----3-----3------|
|-------------------------|--------------------------|
|-------------------------|--------------------------|
|
|---------3---------------|-----------------------4--|
|---4-------4---4-----3---|---3-----6-5---5-----3----|
|-----------------------3-|--------------------------|
|-----1-----------3-------|-----0-----------3--------|
|-------------------------|--------------------------|
|-------------------------|--------------------------|
|---------3-1-------------|----------------------------|
|-3---3-------6---6-5---5-|-5---5----------------------|
|-3-3---------5-5---3-3---|-3-3-----2-0-0---0----------|
|-3-----3-----5-----3-----|-2-----2-----2-2---3--------|
|-------------------------|-------------------5--------|
|-------------------------|----------------------------|
|
|---------3-1---1-------6-|---6-----5-3---3--------10--|
|-----3---------------5---|----------------------------|
|-----------------0-------|-----3-----------2---10-----|
|---0---------------------|----------------------------|
|-------------------------|----------------------------|
|-------------------------|----------------------------|
|--------------------------------|---------------------------------|
|----------------3-------3-------|-3-------------------------------|
|-4-------5----------------------|---------5------4-------4--------|
|-3-------3------3-------3-------|-3-------3------3-------3--------|
|-0-------0------0-------0-------|-0-------0------0-------0--------|
|--------------------------------|---------------------------------|
|
|--------------8------10------10-|------10------8------------------|
|------12------------------------|---------------------12------12--|
|---10------10-----10------10----|---10------10-----10------10-----|
|--------------------------------|---------------------------------|
|--------------------------------|---------------------------------|
|--------------------------------|---------------------------------|
|-------------------------|--------------------------|
|-0---0---------3-------6-|-6---6---3----------------|
|-0-0---5---5-----5-5---5-|-5-5-----4-4-5---5---3-0--|
|-3-----3-3---------3---3-|-3-----3-3---3-3----------|
|-------0-----0-------0---|-------------0-----0------|
|-------------------------|--------------------------|
|
|-----------------------1-|-1---1--------------------|
|-----0-----1-----3---1---|---3-----3-0-1---1-1------|
|---0-----0-----5---------|---------------------3-0--|
|-------------------------|--------------------------|
|-------------------------|--------------------------|
|-------------------------|--------------------------|
|------------------------|--------------------------|
|-------4----3-----------|-3---3---3----------------|
|-2-----2----3-----2-----|-3-3-----4-4-5---5---3-0--|
|-3-----3----3-----3-----|-3-----3-3---3-3----------|
|-0----------------0-----|-------------0-----0------|
|------------------------|--------------------------|
|
|-----1---1--------------|--------------------------|
|--------------------4-6-|-6-------3-0-1-----1------|
|----------------2-5-----|---------------------3-0--|
|-3-3---3------3---------|--------------------------|
|------------------------|--------------------------|
|------------------------|--------------------------|
|-------------------------|----------1----------------|
|-------2---2-2---2-2---2-|-3---3------3-3-----2---2--|
|-2---2-2-2---0-0---0-0---|-2-2----------2---2-0-0----|
|-3-3---3-----2-----2-----|-3------3-----0-0---2------|
|-0-----------------------|---------------------------|
|-------------------------|---------------------------|
|
|-----5-----3-----5-----9-|-----10---5-6---------6-5--|
|---------------6-----6---|---6-----------------------|
|-------------------------|----------------7-6--------|
|-3-3-----3---------------|---------------------------|
|-------------------------|---------------------------|
|-------------------------|---------------------------|
|---------1---------------|---------------------------|
|-3---3-----3-3-----2---2-|-3-------------------------|
|-2-2---------2---2-0-0---|-2-2---5-----3-----2-------|
|-3-----3-----0-0---2-----|-3---3-3-3---5-5---3-3-----|
|-------------------------|-------0---0-5---5-3----3--|
|-------------------------|---------------------------|
|
|---------5-6---------6-5-|---------5-6---------10-8--|
|-------------------------|---2-3---------3-2---------|
|---6-7---------7-6-------|---------------------------|
|-------------------------|---------------------------|
|-------------------------|---------------------------|
|-------------------------|---------------------------|
|--------------------------|-------------------------|
|--------------------------|-------------------------|
|-0-----------0-----2-2----|--------------2---2-2----|
|-2-2---3-----2-2---0----0-|-2-----0------2-2---3-3--|
|-2---2-3-3---0---0--------|-1-1---0-0----0-----0----|
|-------5---5-------2------|-0---0-0----0------------|
|
|---------6-5---------10-8-|---------10--------------|
|---3-4---------6-5--------|---5-3------6---2-5---6--|
|--------------------------|-------------------------|
|--------------------------|-------------------------|
|--------------------------|-------------------------|
|--------------------------|-------------------------|
|------------------------------|---------------------------|
|------------------------------|-------3-----3-----3-------|
|----2---2-2-------2---2-2---2-|-2-----2-----2-----2-------|
|----2-2---3-3-----3-3---2-2---|-0-----0-----0-----0-------|
|-0--0-----0----0--0-----0-----|-0-----0-----0-----0-------|
|------------------------------|---------------------------|
|
|-10-----5---10------5-----9---|---------3-2---6-5---10-8--|
|------5--------10-----5-------|---2-3---------------------|
|----------------------------9-|---------------------------|
|------------------------------|---------------------------|
|------------------------------|---------------------------|
|------------------------------|---------------------------|
|--------------------------|-2----*|--|
|-3-3----------------------|-3----*|--|
|-2----2-3-3---2---2-2-2---|-2----*|--|
|-0------3---3-3-3---2---2-|-0----*|--|
|-0------0-----0-----0-----|-0----*|--|
|--------------------------|------*|--|
|
|---10-5---6-3---3-0-------|------*|--|
|----------------------6-2-|------*|--|
|--------------------------|-7----*|--|
|--------------------------|-7----*|--|
|--------------------------|-5----*|--|
|--------------------------|-5----*|--|
Документ
Категория
Ноты, аккорды
Просмотров
3
Размер файла
10 Кб
Теги
626, вольфгант, рэквием, лакримоса, амадей, моцарт
1/--страниц
Пожаловаться на содержимое документа