close

Вход

Забыли?

вход по аккаунту

?

Моцарт Вольфгант Амадей - Соната для фортепьяно в G, 3-ая часть К.283

код для вставкиСкачать
Соната для фортепьяно в G, 3-ая часть К.283
!Темп: Presto
!Тональность: D
!Строй: стандартный
!Размер: 3/8
[ (Трель) Лигато
p h p ^ p h p
E||---------^-^-^-|----------|--3-----2--|2-0--------|---------^-^-^--|
B||--0-----1-0-1-0|-3-----3--|--5-----3--|--1-----3--|--0-----1-0-1-0-|
G||--0-----2------|-4-----4--|-----------|--------4--|--0-----2-------|
D||---------------|----------|-----------|-----------|----------------|
A||---------------|----------|-----------|-----------|----------------|
E||--3--3--3------|-3--3--3--|--3--3--3--|--3--3--3--|--3--3--3-------|
Лигато
----------|--0--------|-^---------|--------------|--------------|--------------|
-3-----3--|--1-----3--|3-1-----0--|----------0---|----------1---|----0---0-3-0-|
-4-----4--|--------4--|--2-----0--|----0---0---0-|----2-1-2---2-|------3-------|
----------|-----------|-----------|--0---4-------|--2-----------|--4-----------|
----------|-----------|-----------|--2-----------|--3-----------|--5-----------|
-3--3--3--|--3--3--3--|--3--3--3--|--------------|--------------|--------------|
----------0---|----------8----|--7-----------|----------2---|--3-----------|
----1-0-1---1-|--3-------10---|--8-------3---|--1-------1---|--0-------0---|
--0-----------|---------------|--0-------4---|--2-----------|----------0---|
--2-----------|----0---0----0-|----0---0---0-|----0---0---0-|----0---0---0-|
--------------|------4---9----|------4-------|--0---4---0---|--2---4---2---|
--------------|--2------------|----------3---|--------------|--------------|
--------------|------0-----|-----------|-----------|-----------|-----------|
--1---0---1-0-|--3-1-------|-----------|-----0-----|-----------|-----------|
----1---2-----|---------0--|-----5-----|--0-----0--|-----2-----|-----0-----|
--2-----------|------------|--4-----4--|--2-----2--|--2-----2--|--0-----0--|
--3-----------|---------3--|--5-----5--|-----------|--3-----3--|--2-----2--|
--------------|------------|-----------|-----------|-----------|-----------|
-----------|-----------|--------------|----------0---|--2-----------|
-----------|-----------|--------------|------1-----1-|--1-----------|
-----------|-----0--2--|--4-------2---|----0---0-----|--2-0---0-2---|
--0--4--0--|-----------|--3-5-4-5---5-|--2-----------|------4-----4-|
--0-----0--|--2--------|--5-----------|--------------|--------------|
-----------|--3--------|--3-----------|--3-----------|--3-----------|
--3-7-3-------|--------------|----------0---|--2-----------|--3-5-7-3-2---|
--------3-----|--------------|------1-----1-|--1-----------|------------4-|
----------4---|--4-------2---|----0---0-----|--2-0---0-2---|--------------|
------------5-|--3-5-4-5---5-|--2-----------|------4-----4-|--------------|
--------------|--5-----------|--------------|--------------|--------------|
--3-----------|--3-----------|--3-----------|--3-----------|--3-----------|
--0-----------|--------------|--------------|--------------|--------------|
----------3---|--3---1---0---|--0-------0---|--3---1---0---|--0-------0---|
----0---0---0-|----0---0---0-|----0-2-0---0-|----0---0---0-|----0-2-0---0-|
------4---0---|--2---2---0---|------4---0---|--2---4---0---|------4---0---|
--3-----------|--------------|--3-----------|--------------|--3-----------|
--------------|--------------|--------------|--------------|--------------|
--------------|-----10--10--|--10------|--5--4--7--|--5--4--7--|--------0--|
--3---1---0---|-------------|----------|-----------|-----------|--3--2-----|
----0---0---0-|--2--11--11--|--11------|-----------|-----------|--------0--|
--2---4-------|--4--7-------|----------|-----------|-----------|--4--2-----|
----------4---|--5------9---|----------|-----------|-----------|--0--------|
--------------|-------------|--10------|-----------|-----------|-----------|
--------0--|--------2---|--3-----0---|----------2-|-------3---5-|--3--2--5--|
--3--2-----|--3-------3-|----------2-|--3---------|--5--5---7---|-----------|
--------0--|------------|--------0---|--------2---|-------------|-----------|
--4--2-----|--4-----0---|------------|--4-----0---|-------------|-----------|
--0--------|--0--0------|--4--0------|-----0------|--4----------|-----------|
-----------|------------|------------|------------|-------------|-----------|
--3--2--5--|--3--------|--3--------|--3-----0---|----------2-|--0-------3-|
-----------|--2--0--3--|--2--0--3--|--2-------2-|--3---------|------------|
-----------|-----------|-----------|--------0---|--------2---|--------2---|
-----------|--2--0--4--|--2--0--4--|--2---------|--4-----0---|------------|
-----------|--0--------|--0--------|--0--0------|-----0------|--4--0--4---|
-----------|-----------|-----------|------------|------------|------------|
--2--2-5-3-7-|--5--------|-------------|--7--6--9--|--7----------|-----------|
-----3---5---|--7--------|-------------|--0--------|-------3---5-|--3--------|
-------------|-----------|-----------0-|-----3--6--|--4--4---5---|--4--------|
--0----------|--0-----2--|--0--0-4-2---|--4--------|-----5---7---|--5--4--7--|
-------------|-----4-----|-----2---4---|--5--------|-------------|-----------|
-------------|-----------|-------------|-----------|-------------|--3--2--5--|
-------------|--0-----2--|--0--0---2-0-|--3-0--------|--3-0--------|
-------0---1-|-----4-----|-------4-----|------2------|------2------|
-----0---2---|--0--------|-------------|--------3-2--|--------3-2--|
--5--2---4---|--2--1--4--|--2----------|----------2--|----------2--|
-------------|--2--------|-------------|----------4--|----------4--|
--3----------|-----------|-------------|-------------|-------------|
--3-0--------|--3-0--------|----------5--|----------10--|--------------|
------2------|------2------|--------3-7--|----------8---|--------------|
--------3-2--|--------3-2--|------2---7--|--------0-7---|--2-----------|
----------2--|----------2--|--0-4-----0--|------0---9---|----4---4---4-|
----------4--|----------4--|-------------|----2---------|--0---5---0---|
-------------|-------------|-------------|--3-----------|--------------|
( ТРЕЛЬ )
h p h p h p h p h h p
---^-^-^-^-^-^-^-^-^---^-^---|-------5--|--3--2--2--|--2-------|--8--7--7--|
--5-7-5-7-5-7-5-7-5-7-3-5-3--|----------|-----------|-------7--|-----------|
--0--------------------------|----------|-----------|----------|-----------|
-----------------------------|--0-------|--------2--|--0-------|--------7--|
----------7-------0----------|----------|--------1--|--2-------|--------6--|
-----------------------------|----------|-----------|----------|-----------|
1 3 1 3 1 3 1 3 1 3 1 3 1
2
--7--------|--5--------|--3----2--|
--------5--|--------0--|----------|
-----------|--------0--|----------|
-----6--5--|-----4-----|-------0--|
-----5--4--|-----3--2--|--4----2--|
-----------|-----------|--5-------|
( ТРЕЛЬ )
h p h p h p h p h h p
---^-^-^-^-^-^-^-^-^---^-^---|
--5-7-5-7-5-7-5-7-5-7-3-5-3--|
--0--------------------------|
-----------------------------|
----------7-------0----------|
-----------------------------|
1 3 1 3 1 3 1 3 1 3 1 3 1
2
-----------|-----------|--2-------|--------6--|-----5--4--|
--3--------|--------6--|----------|--------5--|-----4--3--|
--------2--|--------4--|--3-------|--5h-4--4--|--4--------|
-----0-----|--5h-4--4--|--4----4--|-----------|--------2--|
-----------|-----------|----------|-----------|-----------|
-----------|-----------|----------|-----------|-----------|
II
-----3--2--|--7------|--3------|--------2-5--|--------3-7--|----------10--|
-----2--3--|---------|--2------|------3---3--|------3------|--------3-----|
--2--------|--7------|--2------|----2-----2--|----4-----7--|------2---7---|
--------0--|--5------|---------|--4-------4--|--5-------5--|----4---------|
-----------|---------|---------|-------------|----------5--|--5-------9---|
-----------|---------|---------|-------------|-------------|--------------|
3 1 2 1 4
2
1
3
----------10--|----10---10---10-|----10---10---10-|----9---9---9-|
----------8---|--7----7----7----|--7----7----7----|--5---5---5---|
--------0-7---|-----------------|-----------------|--0---0-------|
------0---9---|------------0----|------------7----|--------------|
----2---------|--0--------------|--9--------------|----------7---|
--3-----------|-----------------|-----------------|--------------|
----9---9---9-|--10-------|-----------|-----------|----------|-------9---|
--5---5---5---|-----------|-----------|-----------|----------|-------10--|
--------------|--11-------|-----------|-----------|----------|-------9---|
--------------|--0-----4--|--5--6--7--|--8--9--6--|--7----7--|-----------|
----------0---|-----------|-----------|-----------|----------|--5----0---|
--9---9-------|--------2--|--3--4--5--|--6--7--4--|--5----5--|-----------|
(Трель) Лигато (Трель)
p h p ^ p h p
--10-----|---------^-^-^--|-----------|--3-----2--|2-0--------|---------^-^-^--|
--10-----|--0-----1-0-1-0-|--3-----3--|--5-----3--|--1-----3--|--0-----1-0-1-0-|
--11-----|--0-----2-------|--4-----4--|-----------|--------4--|--0-----2-------|
--0------|----------------|-----------|-----------|-----------|----------------|
---------|----------------|-----------|-----------|-----------|----------------|
---------|--3--3--3-------|--3--3--3--|--3--3--3--|--3--3--3--|--3--3--3-------|
Лигато
-----------|--0--------|-^---------|--------------|--------------|
--3-----3--|--1-----3--|3-1-----0--|----------0---|----------1---|
--4-----4--|--------4--|--2-----0--|----0---0---0-|----2-1-2---2-|
-----------|-----------|-----------|--0---4-------|--2-----------|
-----------|-----------|-----------|--2-----------|--3-----------|
--3--3--3--|--3--3--3--|--3--3--3--|--------------|--------------|
--------------|----------0---|----------8----|--7-----------|----------2---|
----0---0-3-0-|----1-0-1---1-|--3-------10---|--8-------3---|--1-------1---|
------3-------|--0-----------|---------------|--0-------4---|--2-----------|
--4-----------|--2-----------|----0---0----0-|----0---0---0-|----0---0---0-|
--5-----------|--------------|------4---9----|------4-------|--0---4---0---|
--------------|--------------|--2------------|----------3---|--------------|
--3-----------|--------------|------0-----|-----------|-----------|-----------|
--0-------0---|--1---0---1-0-|--3-1-------|-----------|-----0-----|-----------|
----------0---|----1---2-----|---------0--|-----5-----|--0-----0--|-----2-----|
----0---0---0-|--2-----------|------------|--4-----4--|--2-----2--|--2-----2--|
--2---4---2---|--3-----------|---------3--|--5-----5--|-----------|--3-----3--|
--------------|--------------|------------|-----------|-----------|-----------|
-----------|-----------|-----------|--------------|----------0---|
-----------|-----------|-----------|--------------|------1-----1-|
-----0-----|-----------|-----0--2--|--4-------2---|----0---0-----|
--0-----0--|--0--4--0--|-----------|--3-5-4-5---5-|--2-----------|
--2-----2--|--0-----0--|--2--------|--5-----------|--------------|
-----------|-----------|--3--------|--3-----------|--3-----------|
--2-----------|--3-7-3-------|--------------|----------0---|--2-----------|
--1-----------|--------3-----|--------------|------1-----1-|--1-----------|
--2-0---0-2---|----------4---|--4-------2---|----0---0-----|--2-0---0-2---|
------4-----4-|------------5-|--3-5-4-5---5-|--2-----------|------4-----4-|
--------------|--------------|--5-----------|--------------|--------------|
--3-----------|--3-----------|--3-----------|--3-----------|--3-----------|
--3-5-7-3-2---|--0-----------|--------------|--------------|--------------|
------------4-|----------3---|--3---1---0---|--0-------0---|--3---1---0---|
--------------|----0---0---0-|----0---0---0-|----0-2-----0-|----0---0---0-|
--------------|------4---0---|--2---2---0---|------4-5-0---|--2---4---0---|
--------------|--3-----------|--------------|--3-----------|--------------|
--3-----------|--------------|--------------|--------------|--------------|
--------------|--------------|-----10--10--|--10------|--5--4--7--|--5--4--7--|
--0-------0---|--3---1---0---|-------------|----------|-----------|-----------|
----0-2-----0-|----0---0---0-|--2--11--11--|--11------|-----------|-----------|
------4-5-0---|--2---4-------|--4----------|----------|-----------|-----------|
--3-----------|----------4---|--5--12--9---|----------|-----------|-----------|
--------------|--------------|-------------|--10------|-----------|-----------|
--------0--|--------0--|--------2---|--3-----0---|----------2-|-------3---5-|
--3--2-----|--3--2-----|--3-------3-|----------2-|--3---------|--5--5---7---|
--------0--|--------0--|------------|--------0---|--------2---|-------------|
--4--2-----|--4--2-----|--4-----0---|------------|--4-----0---|-------------|
--0--------|--0--------|--0--0------|--4--0------|-----0------|--4----------|
-----------|-----------|------------|------------|------------|-------------|
--3--2--5--|--3--2--5--|--3--------|--3--------|--3-----0---|----------2-|
-----------|-----------|--2--0--3--|--2--0--3--|--2-------2-|--3---------|
-----------|-----------|-----------|-----------|--------0---|--------2---|
-----------|-----------|--2--0--4--|--2--0--4--|--2---------|--4-----0---|
-----------|-----------|--0--------|--0--------|--0--0------|-----0------|
-----------|-----------|-----------|-----------|------------|------------|
--0-------3-|--2--2-5-3-7-|--5--------|-------------|--7--6--9--|--7----------|
------------|-----3---5---|--7--------|-------------|--0--------|-------3---5-|
--------2---|-------------|-----------|-----------0-|-----3--6--|--4--4---5---|
------------|--0----------|--0--------|--0--0-4-2---|--4--------|-----5---7---|
--4--0--4---|-------------|-----4--7--|-----2---4---|--5--------|-------------|
------------|-------------|-----------|-------------|-----------|-------------|
-----------|-------------|--0-----2--|--0--0---2-0-|--3-0--------|--3-0--------|
--3--------|-------0---1-|-----4-----|-------4-----|------2------|------2------|
--4--------|-----0---2---|--0--------|-------------|--------3-2--|--------3-2--|
--5--4--7--|--5--2---4---|--2--1--4--|--2----------|----------2--|----------2--|
-----------|-------------|--2--------|-------------|----------4--|----------4--|
--3--2--5--|--3----------|-----------|-------------|-------------|-------------|
--3-0--------|--3-0--------|----------5--|----------10--|--------------|
------2------|------2------|--------3-7--|----------8---|--------------|
--------3-2--|--------3-2--|------2---7--|--------0-7---|--2-----------|
----------2--|----------2--|--0-4-----4--|------0---9---|----4---4---4-|
----------4--|----------4--|-------------|----2---------|--0---5---0---|
-------------|-------------|-------------|--3-----------|--------------|
( трель )
h p h p h p h p h h p
---^-^-^-^-^-^-^-^-^---^-^---|-------5--|--3--2--2--|--2-------|
--5-7-5-7-5-7-5-7-5-7-3-5-3--|----------|-----------|-------7--|
--0--------------------------|----------|-----------|----------|
-----------------------------|--0-------|--------2--|--0-------|
----------7-------0----------|----------|--------1--|--2-------|
-----------------------------|----------|-----------|----------|
1 3 1 3 1 3 1 3 1 3 1 3 1
2
--8--7--7--|--7--------|--5--------|--3----2--|
-----------|--------5--|--------0--|----------|
-----------|-----------|--------0--|----------|
--------7--|-----6--5--|-----4-----|-------0--|
--------6--|-----5--4--|-----3--2--|--4----2--|
-----------|-----------|-----------|--5-------|
( трель )
h p h p h p h p h h p
---^-^-^-^-^-^-^-^-^---^-^---|-----------|-----------|--2-------|
--5-7-5-7-5-7-5-7-5-7-3-5-3--|--3--------|--------6--|----------|
--0--------------------------|--------2--|--------4--|--3-------|
-----------------------------|-----0-----|--5h-4--4--|--4----4--|
----------7-------0----------|-----------|-----------|----------|
-----------------------------|-----------|-----------|----------|
1 3 1 3 1 3 1 3 1 3 1 3 1
2
II
--------6--|-----5--4--|-----3--2--|--7------|--3------|--------2-5--|
--------5--|-----4--3--|-----2--3--|---------|--2------|------3---3--|
--5h-4--4--|--4--------|--2--------|--7------|--2------|----2-----2--|
-----------|--------2--|--------0--|--5------|---------|--4-------4--|
-----------|-----------|-----------|---------|---------|-------------|
-----------|-----------|-----------|---------|---------|-------------|
3 1 2 1 4
2
1
3
--------3-7--|----------10--|----------10--|----10---10---10-|----10---10---10-|
------3------|--------3-----|----------8---|--7----7----7----|--7----7----7----|
----4-----7--|------2---7---|--------0-7---|-----------------|-----------------|
--5-------5--|----4---------|------0---9---|------------0----|------------7----|
-------------|--5-------9---|----2---------|--0--------------|--9--------------|
-------------|--------------|--3-----------|-----------------|-----------------|
----9---9---9-|----9---9---9-|--10-------|-----------|-----------|----------|
--5---5---5---|--5---5---5---|-----------|-----------|-----------|----------|
--0---0-------|--------------|--11-------|-----------|-----------|----------|
--------------|--------------|--0-----4--|--5--6--7--|--8--9--6--|--7----7--|
----------7---|----------0---|-----------|-----------|-----------|----------|
--------------|--9---9-------|--------2--|--3--4--5--|--6--7--4--|--5----5--|
-------9---|--10------|-----------|-----------|-----------|--------5--|
-------10--|--10------|-----3--3--|--3-----6--|-----3--3--|--3--------|
-------9---|--11------|--2--------|-----2-----|--2--------|-----2-----|
-----------|--0-------|--3--------|-----3--3--|--3--------|-----3--3--|
--5----0---|----------|--5--------|-----5--5--|--5--------|-----5--5--|
-----------|----------|-----------|-----------|-----------|-----------|
-----10-13-7-10-|----7---4-----|--------------|--------------|-----------|
--0-------------|--9---6---3-6-|----3---------|--------------|-----------|
----------------|--------------|--4-----4-----|--------------|--2--------|
--6-------------|--------------|------6---3-6-|----3---0-----|--2--2--2--|
--8-------------|--------------|--------------|--5---2-----2-|--3--------|
--10------------|--------------|--------------|----------4---|-----------|
1 4 1 4 4 2 4 2 1 4 2 1 4 2 1 4 3 1 2 3 1
-----------|-----------|-----------|-----5-8------|---------------|
-----------|-----------|--------5--|--1------7-10-|--4-7----------|
--------2--|-----2--2--|--2--------|--2-----------|------5-8------|
--2--------|--2--------|-----2--2--|--4-----------|----------7-10-|
-----3--3--|--3--------|-----3--3--|--------------|---------------|
-----------|-----------|-----------|--------------|---------------|
-------7-----|--------------|---------12-------|--------------|--------------|
--0--8-----8-|----5---------|------11-------11-|----8---5-----|--------------|
---------9---|--4-----4---0-|------------12----|--9---5-----5-|----3---0-----|
--5----------|------5---2---|--8---------------|----------8---|--5---2-----2-|
--7----------|--------------|--10--------------|--------------|----------3---|
-------------|--------------|--12--------------|--------------|--------------|
2 1 3 2 1 3 2 1 1 3 2 1 2 1 1 1 4 1 3 1 1 2 1
--------------|--------------|--------------|--------------|--0-------3---|
--------------|--4-------0---|--1-------2---|--3-------4---|----------5---|
--------------|--------------|--------------|----------2---|--0-----------|
----5-4-5-4-2-|----------1---|--2-------2---|--4-------4---|--------------|
--1-----------|----2-1-2---2-|----2-1-2---2-|----2-1-2---2-|----2-1-2---2-|
--------------|--------------|--------------|--------------|--------------|
----7-6-7---7-|----7-6-7---7-|----7-6-7---7-|-----7-6-7---7-|----7-6-7-6-7-|
--7-------0---|--------------|--------------|-----------8---|--7-----------|
--8-----------|--5-------6---|--7-------8---|--9------------|--------------|
--------------|--------------|--------------|---------------|--------------|
----------6---|--7-------7---|--9-------9---|--10-------7---|--6-----------|
--7-------7---|--7-------7---|--7-------7---|--7--------7---|--7-----------|
--8-5---0----|--8-5---0----|--3----------|--3----------|--------------|
------7---4--|------7---4--|----5--------|----5--------|--0-----------|
----------5--|----------5--|------5-4-3--|------5-4-3--|----0---0---0-|
----------4--|----------4--|----------5--|----------5--|------2-------|
-------------|-------------|----------7--|----------7--|--2-------2---|
-------------|-------------|-------------|-------------|--------------|
( трель )
h p h p h p h p h h
^ ^ ^ ^ ^ ^ ^ ^ ^ ^
--2-3-2-3-2-3-2-3-2-3-0-2-|-0-------|-----------|-----------|----------|
--------------------------|---------|-----------|-----------|-------0--|
----------2---------------|-0----0--|--1--2--3--|--4--5--3--|--4-------|
--------------------------|-2-------|-----------|-----------|----------|
--2---------------2-------|---------|-----------|-----------|-------2--|
--------------------------|------3--|--4--5--6--|--7--8--6--|--7-------|
-------11--|--12-------|-------9--|--10-------|-------7--|--8-------|-----------|
-------10--|--8--------|-------8--|-----------|--1----6--|--5----4--|--5--------|
-------11--|--9-----2--|-------9--|--10----0--|-------7--|--5-------|-----4--5--|
--2----9---|-----------|--0----7--|--0--------|-------5--|----------|-----------|
-----------|--------0--|-------0--|-----------|--3-------|----------|-----------|
--0--------|--12-------|----------|--------3--|----------|--8-------|-----------|
4
1
2
3
-----------|-----------|--------2--|--3--------|-----------|-----------|
-----------|-----------|-----------|-----4--5--|-----------|-----------|
--1--2-----|--0--------|-----------|-----------|--4--5-----|--4--------|
--------2--|-----------|--4--------|-----------|--------5--|-----------|
-----------|-----3--3--|--3--3--2--|--2--------|-----------|-----2--2--|
-----------|-----5--5--|--5--5--5--|--0--------|-----------|-----2--2--|
-----------|-----------|-----------|-----3--4--|--5-----3--|
-----------|-----------|-----------|-----5--6--|--5--5-----|
--2-----2--|--4-----0--|-----------|-----------|--------3--|
-----------|-----4-----|--1--2-----|--0--------|-----2-----|
--2--2-----|-----------|--------2--|-----------|--4--------|
--2--2-----|-----------|-----------|-----------|-----------|
--2--------|-----------|-----------|
-----3--2--|--3--2--3--|-----------|
--2--------|-----------|--2--------|
--0--------|-----------|--4--------|
-----------|-----------|-----5--4--|
-----------|-----------|-----------|
( Трель )
--h-p-h-p-h-p-h-p-h---h--|----5--4--|--5--4--5--|--3-----6--|
--^-^-^-^-^-^-^-^-^---^--|----------|-----------|-----------|
-3-5-3-5-3-5-3-5-3-5-2-3-|-2--------|-----------|-----------|
-0-----------------------|-4--------|-----------|-----5--4--|
-------------------------|-5--------|-----------|-----6--5--|
-------------------------|----------|-----------|-----------|
-Трель-----|----------2-3-|--4-5-6-7-8-9-|--10------|------------------||
---^-------|--3-4-5-6-----|--------------|----------|------------------||
--6-7------|--------------|--------------|----------|------------------||
--5--4--5--|--4-----------|--------------|----------|------------------||
--6--5--6--|--5-----------|--------------|----------|------------------||
-----------|--------------|--------------|----------|------------------||
2 3 4 1 2 3 4 1 2 3 4 4]
Документ
Категория
Ноты, аккорды
Просмотров
13
Размер файла
25 Кб
Теги
соната, вольфгант, фортепьяно, часть, амадей, моцарт, 283
1/--страниц
Пожаловаться на содержимое документа