close

Вход

Забыли?

вход по аккаунту

?

Мумий Тролль - Владивосток 2000

код для вставкиСкачать
*МОРСКАЯ* (1997)
Владивосток 2000
> Am
(1)С гранатою в кармане, с чекою в руке,
Мне чайки здесь запели на знакомом языке.
> Dm
Я подходил спокойно - не прятался, не вор,
> C E
Колесами печально в небо смотрит круизер.
Когда туман растаял и проныла луна,
Со смены не вернулась молодая жена
Вода отравится, погаснет свет, утихнет звук.
К тебе я больше не вернусь - такой теперь я друг.
> Am Dm
Припев:Уходим, уходим, уходим,
> C E
Наступят времена почище,
> Am Dm C
Бьется родная, в экстазе пылая,
> E
Владивосток две тыщи,
(2)В объятиях полупьяных женщин гибли моряки,
Тельняшки рвали и кололи прямо на груди.
Не сердце остановится, не будет слышен стук.
Ты свой последний танец танцевал уже без рук.
Быть может, откопают через тысячу лет
В фантиках жевачки и осколках монет,
Где вылизан весь берег, не дошел до волны,
Где рельсы вылезали из кармана страны.
-
> Am
С гранатою в кармане, с чекою в руке мне чайки здесь запели на знакомом языке
> Dm F Em
Я отходил спокойно не прятался не вор, колёсами печально в небо смотрит круизёр.
Когда туман растаял и проныла луна, со смены не вернуласы молодая жена,
Вода отравиться, погаснет свет, утихнет звук, к тебе я больше не вернусь такой теперя
я друг.
> Am Dm
Припев:Уходим, уходим, уходим,
> F Em
Наступят времена почище.
Бьётся родная в экстазе пылая
Владивосток 2000.
В обьятьях полупьяных женщин гибли моряки, тельняжки рвали и кололи прямо на груди,
Мне сердце остановиться не будет слышан стук,ты свой последний танец танцевал уже без
рук.
Быть может откапают через тысячу лет, в фантиках жвачки и осколках монет,
Где вылезан весь берег не дошёл до волны, где рексы вылезали из карманов страны.
!Припев
-
Вступление:1|------------------------------------------------------------------|
2|--1---1-1---1--3--1--0--1-----------------------------------------|
3|------------------------------------------------------------------|
4|------------------------------------------------------------------|
5|------------------------------------------------------------------|
6|------------------------------------------------------------------|
Соло:1|---------------------7--7---------------7--7----------------------
2|-----------------8----------8-----------------8-------------------
3|-------5-----5-----------------7-7-7-7-----------7-7-7-7-7--------
4|----7-----7-------------------------------------------------------
5|------------------------------------------------------------------
6|------------------------------------------------------------------
1|---------------------7--7-------------------------7---------------|
2|-----------------8----------8-------------------------------------|
3|-------5-----5-----------------7-7-7-7---5--4--7------------------|
4|----7-----7-------------------------------------------------------|
5|------------------------------------------------------------------|
6|------------------------------------------------------------------|
-
> Am
(1)С гранатою в кармане, с чекою в руке
Мне чайки здесь запели на знакомом языке
> Dm
Я отходил спокойно не прятался не вор,
> С E
Колёсами печально в небо смотрит круизёр.
Когда туман растаял и проныла луна,
Со смены не вернуласы молодая жена,
Вода отравиться, погаснет свет, утихнет звук,
К тебе я больше не вернусь такой теперь я друг.
>Am Dm
Припев:Уходим, уходим, уходим,
> С Em
Наступят времена почище.
Бьётся родная в экстазе пылая
Владивосток 2000.
(2)В обьятьях полупьяных женщин гибли моряки,
тельняжки рвали и кололи прямо на груди,
Мне сердце остановиться не будет слышан стук,
ты свой последний танец танцевал уже без рук.
Быть может откапают через тысячу лет,
в фантиках жвачки и осколках монет,
Где вылезан весь берег не дошёл до волны,
где рельсы вылезали из карманов страны.
!Припев
-
Intro:< (Am)>
[G|-5-5---5-5-5---5-|-7-5-4---5-------| Dist
| | | | | | | | | | | | | | | | X 2
A|-0-0---0-0-0---0-|-0-0---0-0-0---0-| Bass]
> Am Am
Verse:С гранатою в кармане с чекою в руке
> Am Am
Мне чайки здесь запели на знакомом языке
> Dm Dm
Я отходил спокойно не прятался не вор
> C E
Колесами печально в небо смотрит круизер
> Am Am
Когда туман растаял и проныла луна
> Am Am
Со смены не вернулась молодая жена
> Dm Dm
Вода отравится погаснет свет утихнет звук
> C E
К тебе я больше не вернусь такой теперь я друг
> Am Dm
Chorus:Уходим уходим уходим
> C E
Наступят времена почище
> Am Dm
Бьется родная в экстазе пылая
>C E
Владивосток 2000
Verse:В объятьях полупьяных женщин гибли моряки
Тельняшки pвали и кололи прямо на груди
Мне сердце остановится не будет слышен стук
Ты свой последний танец танцевал уже без рук
Быть может откопают через тысячу лет
В фантиках жвачки и осколках монет
Где вылизан весь берег не дошел до волны
Где рельсы вылезали из карманов страны
!Chorus } X2
> Am E Dm
[E|----------------|-----------------|-7-7-3-----------|-7-7-3----------| GU
B|--------------8-|-----------------|-------3---3-3---|-------3---3-3--| IT
G|2---5---2---5---|-----------------|-----------------|----------------| AR
| | | | | | | | | | | | | | | | | | | | | | | | | | | | | | | |
A|0-0-0-0-0-0-0-0-|-----------------|-5-5-5-5-5-5-5-5-|-5-5-5-5-5-5-5-5| BA
E|----------------|-0-0-0-0-0-0-0-0-|-----------------|----------------| SS]
> Am E Dm
[E|----------------|-----------------|-7-7-3-----------|-------/7-------| GU
B|--------------8-|-----------------|-------3---3-3-1-|-0---3----------| IT
G|2---5---2---5---|-----------------|-----------------|----------------| AR
| | | | | | | | | | | | | | | | | | | | | | | | | | | | | | | |
A|0-0-0-0-0-0-0-0-|-----------------|-5-5-5-5-5-5-5-5-|-5-5-5-5-5-5-5-5| BA
E|----------------|-0-0-0-0-0-0-0-0-|-----------------|----------------| SS]
!Chorus
> Am E Dm
[D|-----------------|-----------------|-2-2-------------| GU
A|-3-3-2-2---------|-----------------|-0-0-------------| IT
E|---------5-5---0-|-0---------------|-----------------| AR
| | | | | | | | | | | | | | | | | | | | | | | |
A|-3-3-2-2---------|-----------------|-0-0-------------| BA
E|---------5-5---0-|-0---------------|-----------------| SS]
Документ
Категория
Ноты, аккорды
Просмотров
13
Размер файла
7 Кб
Теги
тролль, 2000, владивосток, мумий
1/--страниц
Пожаловаться на содержимое документа