close

Вход

Забыли?

вход по аккаунту

?

Мумий Тролль - Забавы

код для вставкиСкачать
*МОРСКАЯ* (1997)
Забавы
> Cm
Мне бы твои пули
Переплавить в струны
Может быть другая песня
> G# G
Получилась бы
> Cm
Ты б ее послушал
Девушке поставил
Может станцевал бы
> G# G
Только все равно
>G#
У тебя забавы
>A#
Утром все забыл
>Fm
Музыка сорвалась
>G Cm - - - G# - G
Ты меня убил
Так вот за секунду
Наступает тихо
Ветер лучше слушай
Он такой крутой
Лязг и визг и время
Если остановишь
Ты его потикать
Не забудь меня
-
Intro:<Cm> } 4 раза
>Cm Cm
Мне бы твои пули
>Cm Cm
Переплавить в струны
>Cm Cm
Может быть другая песня
> G# G
Получилась бы
>Cm Cm
Ты б ее послушал
>Cm Cm
Девушке поставил
>Cm Cm
Может станцевал бы
> G# G
Только все равно
>G# G#
Припев:У тебя забавы
>A# A# Fm
Утром все забыл
> Fm
Музыка сорвалась
>G G Cm
Ты меня убил
>Cm Cm
Так вот за секунду
>Cm Cm
Hаступает тихо
>Cm Cm
Ветер лучше слушай
>G# G
Он такой крутой
>Cm Cm
Лязг и визг и время
>Cm Cm
Если остановишь
>Cm Cm
Ты его потикать
> G# G
Hе забудь меня
-
Intro:<Cm> } X4
>Cm Cm
Verse:Мне бы твои пули
>Cm Cm
Переплавить в струны
>Cm Cm
Может быть другая песня
> G# G
Получилась бы
>Cm Cm
Ты б её послушал
>Cm Cm
Девушке поставил
>Cm Cm
Может станцевал бы
> G# G
Толькл всё равно
>G# G#
Chorus:У тебя забавы
>A# A# Fm
Утром всё забыл
> Fm
Музыка сорвалась
>G G Cm
Ты меня убил
Bridge:< Cm G# G Cm G# G Cm>
[B|-1---------------|-1-------0-------|---------------|---------------|-1-
G|-----------------|-----------------|-0-------------|-1-------0-----|---
| | | | | | | | | | | | | | | | | | | | | | | | | | | | | | |]
>Cm Cm
Verse:Так вот за секунду
>Cm Cm
Наступает тихо
>Cm Cm
Ветер лучше слушай
>G# G
Он такой крутой
>Cm Cm
Лязг и визг и время
>Cm Cm
Если остановишь
>Cm Cm
Ты его потикать
>G# G
Не забудь меня Chorus
!Bridge
Solo:< Cm Cm Cm Cm>
[E|---------------|-------------8-|---------------|----------11----|
B|---------------|-----------8---|---------------|-------------13-|
G|-5-------------|---------8-----|---------------|----------12----|
| | | | | | | | | | | | | | | | | | | | | | | | | | | | |
> Cm Cm G# G
B|---------------|---------------|---------------|-----------------|
G|---------------|---------------|-8-------------|-7---------------|
| | | | | | | | | | | | | | | | | | | | | | | | | | | | |
> Cm Cm Cm Cm
E|---------------|---------------|-11------------|------------11---|
B|---------------|------------13-|---------------|--------------13-|
G|-8-------------|----------12---|---------------|-----------12----|
| | | | | | | | | | | | | | | | | | | | | | | | | | | | |
> Cm Cm G# G
B|---------------|---------------|---------------|-----------------|
G|---------------|---------------|-8-------------|-7---------------|
| | | | | | | | | | | | | | | | | | | | | | | | | | | | |]
!Chorus
!bridge
Документ
Категория
Ноты, аккорды
Просмотров
4
Размер файла
4 Кб
Теги
тролль, забавы, мумий
1/--страниц
Пожаловаться на содержимое документа