close

Вход

Забыли?

вход по аккаунту

?

Мумий Тролль - Морская капуста

код для вставкиСкачать
Морская капуста
Intro:E---3--2---3--2--3-3--2-3-2-------
B---3--3---3--3--3-3--3-3-3-------
G---3--3---3--3--3-3--3-3-3-------
> Dm Gm
Помельче порежу морскую капусту
> A7 Dm
Не знаю ты любишь ли? но будет вкусно
> Gm Dm
Никогда ведь не скажешь придешь ли на вечер
> A7 Gm A7
Так адрес узнаешь а отметить и нечем
!Chorus (guitar solo):
E ------------------------------------------------
B -/15-14-15-17-14-15-/15-14-15-17-14-15----------
G ------------------------------------------------
D ------------------------------------------------
E-------------------------------------------------
B ------------------------------------------------
G -14h15po14-10h12po10----------------------------
D ---------------------------12-11-12-14-11-12----
E ------------------------------------------------
B -10-11-10-10-11-10-10-11-11b-11-----------------
G ------------------------------------------------
D ------------------------------------------------
E ------------------------------------------------
B ----------10--------------10h11-11B-10----------
G ---10h12-----12po10-9------------------12po10-9-
D ------------------------------------------------
E --------------------------/20-18-17-21-22-22b---
B -----17-18-20-20b-------------------------------
G -/19----------------19--------------------------
D ------------------------------------------------
!Intro
> Dm Gm
Еще я готов развлекать тебя песней
> A7 Dm
Но только в других гостях всегда интересней
> Gm Dm
Там смотрят кино и целуются в уста
> A7 Gm A7
А я режу режу режу режу морскую капусту
!Chorus (guitar solo)
!h = hammer on
!po = pull off
!b = bending
!B = bending with return to the original 'place' of the string
!/ = slide from an 'accidental' fret e.g 5 or 6.
!On the second chorus (guitar solo) the 1st music phrase is played
!just once (the 1st time it is played twice)
!On this song you can improvise. It is writen on D Minor Scale
!Enjoy!
Документ
Категория
Ноты, аккорды
Просмотров
12
Размер файла
2 Кб
Теги
тролль, морская, мумий, капуста
1/--страниц
Пожаловаться на содержимое документа