close

Вход

Забыли?

вход по аккаунту

?

Мумий Тролль - Обещания

код для вставкиСкачать
Обещания
Intro:< Am Em>
1)--------------------------0------------
2)-------1-1p0--------0---0---0h3-1-0-1--
3)-2---2-------2-0-2----0----------------
4)---2-----------------------------------
> Fmaj7 Am6
1)-----0----------------0----------------
2)-------1h3-1-0-1--------1h3-1-0--------
3)---2----------------2-----------2------
4)-3----------------4--------------------
>Am Esus4 } 2 times
>Am Esus4 E
Влюбляться в моде снова
Сразу скоро
>Am Esus4
И мне бы не поверить
> F
Но Эй
> Em Dm
Балтийские глаза
> Em Dm
Вот вам приморских серенад
> E Am Esus4
Мы остаемся навсегда
> Am Esus4
ла ла ла ла ла ла ла ла
> Am Esus4
Навсегда
> Am Esus4
ла ла ла ла ла ла ла ла
>F G
Без обещаний
> C C(add G#)
Но мы не прощаемся
> F F(add A#)
Просто целуемся
> Esus4 E
И улыбаемся
bridge:<Am Em Fmaj7 Am6>
>Am Esus4 E
Ночь полусерпантином
Меня обняв растает
>Am Esus4 F
Такими как я знаю
> Em Dm
Ошибки ерунда
> Em Dm
Всегда другим всем до полудня
> Am Esus4
А нам всего лишь до утра
> Am Esus4
ла ла ла ла ла ла ла ла
> Am Esus4
До утра
> Am Esus4
ла ла ла ла ла ла ла ла
>F G
Без обещаний
> C C(add G#)
Но мы не прощаемся!
> F F(add A#)
Просто целуемся
> Esus4 E
И улыбаемся...
>F Em
Без обещаний... } 3 times
>F G
Без обещаний
> C C(add G#)
Но мы не прощаемся!
> F F(add A#)
Просто целуемся
> Esus4 E
И улыбаемся...
>Am Esus4 } x times
> Fmaj7 Am6 Esus4 C(add G#) F(add B)
1)--0-- --0-- --0-- --0-- --1--
2)--1-- --1-- --0-- --1-- --0--
3)--2-- --2-- --2-- --1-- --2--
4)--3-- --4-- --2-- --2-- --3--
5)--0-- --0-- --2-- --3-- --3--
6)--0-- --0-- --0-- --0-- --1--
Документ
Категория
Ноты, аккорды
Просмотров
5
Размер файла
2 Кб
Теги
тролль, мумий, обещания
1/--страниц
Пожаловаться на содержимое документа