close

Вход

Забыли?

вход по аккаунту

?

Мумий Тролль - С новым годом, крошка!

код для вставкиСкачать
С новым годом, крошка!
Intro:< E5 A5 G5 B5 A5>
[e---------------------------------------------------------------
B----------------------------------------------------------------
G----------------------------------------------------------------
D---------2--------------7-------------5-------------------------
A---------2--------------7-------------5-------------------------
E--0---0-----0---5---5------5---3---3-----3---7---7---5---5------]
> E5 A5 G5 B5 E5 A5 G5 B5
(1)Рождественских снежинок нет.
> E A E
Такая вот погода здесь.
И кто-то жадно беет за воот.
Куда идти? - Хоть в лисьи ноы лезть.
> E5
Припев:С новым годом, крошка!
> A5
С новым годом! Хэй-е-е-е-ей
> D5
Подожди немножко,
> E5
Будет веселей!
С новым годом, крошка!
С новым годом! Хэй-е-е-е-ей
Подожди немножко,
Будет веселей!
(2)Рождественских снежинок нет.
Снегуку замели.
И кто-то жадно беет за воот.
Замезли Жигули.
Припев:С новым годом, крошка!
С новым годом! Хэй-е-е-е-ей
Подожди немножко,
Будет веселей!
С новым годом, крошка!
С новым годом! Хэй-е-е-е-ей
Подожди немножко,
Будет веселей!
С новым годом, крошка!
С новым годом! Хэй-е-е-е-ей
Подожди немножко,
Будет веселей!
С новым годом, крошка!
С новым годом! Хэй-е-е-е-ей
Лунная дорожка
Станет холодней.
-
Intro:<E5 A5 G5 B5 A5> } 8 раз
> E5 A5 G5 B5 A5
1|----------------- -----------------
2|-------------0--- -----------------
3|-----0-------2--- -------4-4-2-2-0-
4|-----2-------2--- -----5-4-4-2-2---
5|-----2-2-0-0---0- -----5-2-2-0-0---
6|-0-0------------- -3-3-------------
| | | | | | | |
>E5 G5 A5
(1)Poждecтвeнcкиx cнeжинoк нeт.
! <G5 D5 E5> (<E5>-<A5>-<G5>-<B5>-<A5>)
Тaкaя вoт пoгoдa здecь.
>E5 G5 A5
И ктo-тo жaднo бepeт зa вopoт.
> G5 D5 E5
Кyдa идти? - Xoть в лиcьи нopы лeзть.
> Em \
Припев:C нoвым гoдoм, Кpoшкa! \
> A \
C нoвым гoдoм! Xзй-e-e-e-eй \ 2
> D / раза
Пoдoжди нeмнoжкo, /
> A /
Бyдeт вeceлeй! /
(2)Poждecтвeнcкиx cнeжинoк нeт.
Cнeгypкy зaмeли.
И ктo-тo жaднo бepeт зa вopoт.
Зaмepзли Жигyли.
!Припев } x?
Документ
Категория
Ноты, аккорды
Просмотров
57
Размер файла
3 Кб
Теги
тролль, годом, новый, мумий, крошка
1/--страниц
Пожаловаться на содержимое документа