close

Вход

Забыли?

вход по аккаунту

?

Наив - Мама анархия

код для вставкиСкачать
Мама анархия
> C
(1)Солдат шел по улице домой
> F G C
И увидел этих ребят.
> C
"Кто ваша мама, ребята?" -
> F G C
Спросил у ребят солдат.
> Am Em
Припев:Мама - Анархия,
> F G
Папа - стакан портвейна.
(2)Все они в кожаных куртках,
Все небольшого роста,
Хотел солдат пройти мимо,
Но это было не просто.
Припев:Мама - Анархия,
Папа - стакан портвейна.
(3)Довольно веселую шутку
Сыграли с солдатом ребята:
Раскрасили красным и синим,
Заставляли ругаться матом.
Припев:Мама - Анархия,
Папа - стакан портвейна.
-
[e-0---0---3-0---5----5--8--5--33333--------------
b---1-------------6--------------------15-15-15-15-15-----
g-----------------------------------------------------------
d----------------------------------------------------------
a-----------------------------------------------------------
E------------------------------------------------------------]
-
!Этo вcтyплeниe к пecнe
1|-0-0--3-0---5---5--8-5---3-3-3-3-3-|15 15 15 15 15
2|--1-----------6---------------------|----------------
3|------------------------------------|-----------------
4|------------------------------------|-----------------
5|------------------------------------|----------------
6|------------------------------------|----------------
1| 5 8 6 5 3
-
> C F G
[e----------------8-----------------15------------------------
b-------8-----10---10—8-8-8-8-8-*----------------------------
g-----9----10------------------------------------------------
d--10--------------------------------------------------------
a------------------------------------------------------------
E------------------------------------------------------------]
! Так 4 раза, а на 5й раз так
[e----------------8-------------------------------------------
b-------8-----10---10—8-8-8-8-8-12-15-12-10-8----------------
g-----9----10------------------------------------------------
d--10--------------------------------------------------------
a------------------------------------------------------------
E------------------------------------------------------------]
!* Примечание: рослее «играния» отмеченного * палец, не отпуская
!струну быстро съезжает вверх по грифу к первому ладу, сразу же
!переходит на первый лад первой струны и съезжает до 15 лада. Так
!вроде играли гитаристы НАИВа на концертах.
Документ
Категория
Ноты, аккорды
Просмотров
12
Размер файла
2 Кб
Теги
мама, наив, анархия
1/--страниц
Пожаловаться на содержимое документа