close

Вход

Забыли?

вход по аккаунту

?

Наив - Суперзвезда

код для вставкиСкачать
Суперзвезда
!** Иногда там неразборчиво поется, так что сорри
!за ошибки в тексте, если они есть**
>C F7 G
(1)Когда я перестану пить совершенно
>C F7 G
Все скажут: "Как же он хорош, какая милашка!
>C F7 G
Как мы могли не замечать, не обращать вниманья,
>C F7 G (C*)
Он на Киркорова похож, такой же чебурашка!"
Когда я перестану дуть до одуренья,
Все скажут: "Парень хоть куда!
Поэт, нет, больше, чем поэт
Покруче даже Шевчука!"
>Am F C E7 E Am
Припев:Когда я перестану дуть, и обновленная душа
>Am F C E7 E Am
Моя над миром вознесется очень высоко
>Am F C E7 E Am
Тогда поймете, наконец, какая супер я звезда
>Am F C E7 E Am F
И все от зависти помрете - раз и навсегда-а-аа!
> C E7 E F
...а-аа, раз и навсегда!
>Am F G
(2)Когда я перестану пить, я стану супер-популярным
Когда я перестану пить,
Народ поймёт что я вменяем,
В отставку Ельцина тогда,
Я всенародно и единогласно избираем!
!Припев
!Примечание: <С*> - это <С>, но с открытой второй струной
-
>C F7 G
Когда я перестану пить совершенно
>C F7 G
Все скажут: "Как же он хорош, какая милашка!
>C F7 G
Как мы могли не замечать, не обращать вниманья,
>C F7 G C/B
Он на Киркорова похож, такой же чебурашка!"
Когда я перестану дуть до одуренья,
Все скажут: "Парень хоть куда!
Поэт, нет, больше, чем поэт
Покруче даже Шевчука!"
>Am F C E7 E Am
Припев:Когда я перестану дуть, и обновленная душа
>Am F C E7 E Am
Моя над миром вознесется очень высоко
>Am F C E7 E Am
Тогда поймете, наконец, какая супер я звезда
>Am F C E7 E Am F
И все от зависти помрете - раз и навсегда-а-аа!
> C E7 E F
...а-аа, раз и навсегда!
>Am F G
Когда я перестану пить, я стану суперпопулярным
Когда я перестану пить,
Народ поймёт что я вменяем,
В отставку Ельцина тогда,
Я всенародно и единогласно избираем!
<C/B> [032000]
-
Intro: <C7M>
[E||----------------------|----------------------|----------------------|
B||-------1-------1------|-------1-------1------|-------1-------1------|
G||----------4-----------|----------4-----------|----------4-----------|
D||----------------------|----------------------|----------------------|
A||--3-------------------|--3-------------------|--3-------------------|
E||----------------------|----------------------|----------------------|
----------------------|----------------------|
-------1-------1------|-------1-------1------|
----------4-----------|----------4-----------|
----------------------|----------------------|
--3-------------------|--3-------------------|
----------------------|----------------------|]
!Start singing
> C7M F7
|----------------------|----------------------|
|-------1-------1------|-------1-------1------|
|----------4-----------|----------2-----------|
|----------------------|----------------------|
|--3-------------------|--3-------------------|
|----------------------|----------------------|
Кoгдa я пepecтaнy
> G C7M
[----------------------|----------------------|----------------------|
----------3-----------|----------3-----------|-------1-------1------|
-------4-------4------|-------4-------4------|----------4-----------|
----------------------|----------------------|----------------------|
--5-------------------|--5-------------------|--3-------------------|
----------------------|----------------------|----------------------|]
пить coвepшeннo Вce cкaжyт:
> F7 G
[----------------------|----------------------|----------------------|
-------1-------1------|----------3-----------|----------3-----------|
----------2-----------|-------4-------4------|-------4-------4------|
----------------------|----------------------|----------------------|
--3-------------------|--5-------------------|--5-------------------|
----------------------|----------------------|----------------------|]
"Кaк жe oн xopoш, кaкaя милaшкa!
> C7M F7 G
[----------------------|----------------------|----------------------|
-------1-------1------|-------1-------1------|----------3-----------|
----------4-----------|----------2-----------|-------4-------4------|
----------------------|----------------------|----------------------|
--3-------------------|--3-------------------|--5-------------------|
----------------------|----------------------|----------------------|]
Кaк мы мoгли нe зaмeчaть, нe
> C7M F7
[----------------------|----------------------|----------------------|
----------3-----------|-------1-------1------|-------1-------1------|
-------4-------4------|----------4-----------|----------2-----------|
----------------------|----------------------|----------------------|
--5-------------------|--3-------------------|--3-------------------|
----------------------|----------------------|----------------------|]
oбpaщaть внимaнья, Oн нa Киpкopoвa
> G C7M
[----------------------|----------------------|--0~---------------||
----------3-----------|----------3-----------|--1~---------------||
-------4-------4------|-------4-------4------|--4~---------------||
----------------------|----------------------|--2~---------------||
--5-------------------|--5-------------------|--3~---------------||
----------------------|----------------------|-------------------||]
пoxoж, тaкoй жe чeбypaшкa!"
!A здecь пpocтo игpaeм aккopды
>C F7 G
Кoгдa я пepecтaнy дyть дo oдypeнья,
>C F7 G
Вce cкaжyт: "Пapeнь xoть кyдa!
>C F7 G
Пoэт, нeт, бoльшe, чeм пoэт
>C F7 G
Пoкpyчe дaжe Шeвчyкa!"
>Am F C E Am
Кoгдa я пepecтaнy дyть, и oбнoвлeннaя дyшa
>Am F C E Am
Мoя нaд миpoм вoзнeceтcя oчeнь выcoкo
>Am F C E Am
Тoгдa пoймeтe, нaкoнeц, кaкaя cyпep я звeздa
>Am F C E Am F
И вce oт зaвиcти пoмpeтe - paз и нaвceгдa-a-aa!
>C E Am
...a-aa, paз и нaвceгдa!
>Am F G
Кoгдa я пepecтaнy пить, я cтaнy cyпepпoпyляpным
Кoгдa я пepecтaнy пить,
Нapoд пoймёт чтo я вмeняeм,
В oтcтaвкy Eльцинa тoгдa,
Я вceнapoднo и eдинoглacнo избиpaeм!
Кoгдa я пepecтaнy дyть, и oбнoвлeннaя дyшa
Мoя нaд миpoм вoзнeceтcя oчeнь выcoкo
Тoгдa пoймeтe, нaкoнeц, кaкaя cyпep я звeздa
И вce oт зaвиcти пoмpeтe - paз и нaвceгдa-a-aa!
...a-aa, paз и нaвceгдa!
-
solo:[e|-----------------------|
b|-----------0-----------|
![g|---------------0-------|]-игpaeтcя 5paз c5 нaчинaeшь пeть
d|-------5---------------|
a|--3--------------------|
E|-----------------------|]
!пoтoм:
[e|-----------------------|----------0---------|----------0---------|
b|-----------0-----------|-------3-----3------|-------3-----3------|
g|--------5------5-------|----0---------------|----0---------------|
d|---3-------------------|--------------------|--------------------|
a|-----------------------|--------------------|--------------------|
E|-----------------------|--------------------|--------------------|]
> c F G
Кoгдa я пepecтaнy пить coвepшeннo,
Вce cкaжyт: кaк жe oн xopoш, кaкaя милaшкa,
Кaк мы мoгли нe зaмeчaть, нe oбpaщaли внимaния,
Oн нa Киpкopoвa пoxoж, тaкoй жe Чeбypaшкa.
Кoгдa я пepecтaнy дyть дo oдypeнья,
Вce cкaжyт: пapeнь xoть кyдa,
Пoэт, нeт, бoльшe чeм пoэт,
Пoкpyчe дaжe Шeвчyкa.
> E5 C5 G5
Пpипeв:Кoгдa я пepecтaнy пить
> B5 E5
И oбнoвлeннaя дyшa
Мoя нaд миpoм вoзнeceтcя
Oчeнь выcoкo,
Тoгдa пoймeтe нaкoнeц
Кaкaя cyпep я звeздa
И вce oт зaвиcти пoмpeтe
Paз и нaвceгдa, a, a, a.
Paз и нaвceгдa.
Кoгдa я пepecтaнy дyть,
Нapoд пoймeт, чтo я вмeняeм,
В oтcтaвкy Пyтинa, тoгдa
Я вceнapoднo и eдинoглacнo избиpaeм.
!P.S.
!кoгдa epeшь <G> зaжимaй eщe b нa 3 лaдy
!<B5> нa ceдьмoм лaдy
! Eadgbe
!<B5>:[79xxxx]
!втopoй кyплeт игpaть квинтaми <C5 F5 G5>
-
>C F7 G
Когда я перестану пить совершенно
>C F7 G
Все скажут: "Как же он хорош, какая милашка!
>C F7 G
Как мы могли не замечать, не обращать вниманья,
>C F7 G (C*)
Он на Киркорова похож, такой же чебурашка!"
Когда я перестану дуть до одуренья,
Все скажут: "Парень хоть куда!
Поэт, нет, больше, чем поэт
Покруче даже Шевчука!"
>Am F C E7 E Am
Припев:Когда я перестану дуть, и обновленная душа
>Am F C E7 E Am
Моя над миром вознесется очень высоко
>Am F C E7 E Am
Тогда поймете, наконец, какая супер я звезда
>Am F C E7 E Am F
И все от зависти помрете - раз и навсегда-а-аа!
>C E7 E F
...а-аа, раз и навсегда!
>Am F G
Когда я перестану пить, я стану супер-популярным
Когда я перестану пить,
Народ поймёт что я вменяем,
В отставку Ельцина тогда,
Я всенародно и единогласно избираем!
!Припев
!Примечание: <С*> - это <С>, но с открытой второй струной
-
>C F G
Когда я перестану пить совершенно,
Все скажут: как же он хорош, какая милашка,
Как мы могли не замечать, не обращали внимания,
Он на Киркорова похож, такой же Чебурашка.
Когда я перестану дуть до одуренья,
Все скажут: парень хоть куда,
Поэт, нет, больше чем поэт,
Покруче даже Шевчука.
>C F G
Припев:Когда я перестану пить
>E Am
И обновленная душа
>c F G
Моя над миром вознесется
>E Am
Очень высоко,
>C F G
Тогда поймете наконец
>E Am
Какая супер я звезда
>C F G
И все от зависти помрете
>E Am
Раз и навсегда, а, а, а.
>E Am
Раз и навсегда.
Когда я перестану дуть,
Народ поймет, что я вменяем,
В отставку Ельцина, тогда
Я всенародно и единогласно избираем.
!Припев
-
>G C D
Когда я перестану пить совершенно,
Все скажут: как же он хорош, какая милашка,
Как мы могли не замечать, не обращали внимания,
Он на Киркорова похож, такой же Чебурашка.
Когда я перестану дуть до одуренья,
Все скажут: парень хоть куда,
Поэт, нет, больше чем поэт,
Покруче даже Шевчука.
>Em C G
Припев:Когда я перестану пить
>D Em
И обновленная душа
>Em C G
Моя над миром вознесется
>D Em
Очень высоко,
Тогда поймете наконец
Какая супер я звезда
И все от зависти помрете
Раз и навсегда, а, а, а.
Раз и навсегда.
Когда я перестану дуть,
Народ поймет, что я вменяем,
В отставку Ельцина, тогда
Я всенародно и единогласно избираем.
!Припев
-
!Вступительное соло:
1|-----------
2|-----1-0-1-
3|----------- } х4
4|-----------
5|---3-------
6|-----------
1|----------------------3-------3--
2|----1-0-1---1-0-1.--0---0---0---0
3|---------------------------------
4|---------------------------------
5|--3------------------------------
6|----------1-------3-------3------
Когда я перестану пить совершенно
Все скажут: "Как же он хорош, какая милашка!
Как мы могли не замечать, не обращать вниманья,
> C*
Он на Киркорова похож, такой же чебурашка!"
>C F G
Когда я перестану дуть до одуренья,
>C F G
Все скажут: "Парень хоть куда!
>C F G
Поэт, нет, больше, чем поэт
>C F G
Покруче даже Шевчука!"
>Am F C E
Припев:Когда я перестану дуть, и обновленная душа
>Am F C E
Моя над миром вознесется очень высоко
>Am F C E
Тогда поймете, наконец, какая супер я звезда
>Am F C E F
И все от зависти помрете - раз и навсегда-а-аа!
>C E F
...а-аа, раз и навсегда!
>Am F G
Когда я перестану дуть, я стану супер-популярным
Когда я перестану пить,
Народ поймёт что я вменяем,
В отставку Ельцина тогда,
Я всенародно и единогласно избираем!
!Припев
!Примечание: <С*> - это <С>, но с открытой второй струной
-
>C F G
Когда я перестану пить, совершенно,
Все скажут: как же он хорош, какая милашка,
Как мы могли не замечать, не обращали внимания,
Он на Киркорова похож, такой же Чебурашка.
Когда я перестану дуть до одуренья,
Все скажут: парень хоть куда,
Поэт, нет, больше чем поэт,
Покруче даже Шевчука.
>Am F C
Когда я перестану пить
> E Am
И обновленная душа
> F C
Моя над миром вознесется
>E Am
Очень высоко,
> F C
Тогда поймете, наконец,
> E Am
Какая супер я звезда
> F C
И все от зависти помрете
> E Am F C
Раз и навсегда - а . а,
> E Am F C
Раз и навсегда . а . а,
> E Am
Раз и навсегда.
>C F
Когда я перестану пить,
> C
Я стану супер популярным.
Когда я перестану дуть,
Народ поймет, что я вменяем,
В отставку Ельцина, тогда.
Я всенародно и единогласно избираем.
Документ
Категория
Ноты, аккорды
Просмотров
19
Размер файла
14 Кб
Теги
суперзвезда, наив
1/--страниц
Пожаловаться на содержимое документа