close

Вход

Забыли?

вход по аккаунту

?

Наутилус Помпилиус - Гуд-бай, Америка

код для вставкиСкачать
Гуд-бай, Америка
>H7 Em
Когда умолкнут все песни,
>Am H7
Которых я не знаю,
> Em/A Am
в терпком воздухе крикнет
> G H7 Em H7
Последний мой бумажный пароход.
Good-bye Америка, о,
Где я не был никогда.
Прощай навсегда.
возьми банджо,
Сыграй мне на прощанье.
>Em Am Em Am Em
> g f# e h g f# e h
Ла-ла-ла-
>Em Am Em Am H7
> g f# e h
Ла-ла-ла-
Мне стали слишком малы
Твои тертые джинсы.
Нас так долго учили
Любить твои запретные плоды.
Good-bye Америка, о,
Где я не буду никогда.
Услышу ли песню,
Которую запомню навсегда.
-
[E||-----------5----7----|--8--------7----5----|-------------------|
B||------5--------------|---------------------|--5----------------|
G||---------------------|---------------------|-------------------|
D||---------------------|---------------------|-------------------|
A||---------------------|---------------------|-------------------|
E||---------------------|---------------------|-------------------|
--------------8----|--8----7--------7-----|--0----------------|
-------------------|-------------------8--|-------------------|
-------------------|----------------------|-------------------|
-------------------|----------------------|-------------------|
-------------------|----------------------|-------------------|
-------------------|----------------------|-------------------|
----------10----10----|--10----------------|----------8----7----|
----------------------|--------------------|--------------------|
----------------------|--------------------|--------------------|
----------------------|--------------------|--------------------|
----------------------|--------------------|--------------------|
----------------------|--------------------|--------------------|
--8-----------------|--------------8----|--8-------------------|
-----------6--------|-------------------|-------8----8---------|
--------------------|-------------------|-----------------9----|
--------------------|-------------------|----------------------|
--------------------|-------------------|----------------------|
--------------------|-------------------|----------------------|
--7------7------7--4--|--5----------------|------------------|
----------------------|-------------------|------------------|
----------------------|-------------------|------------------|
----------------------|-------------------|------------------|
----------------------|-------------------|------------------|
----------------------|-------------------|------------------|
------------------|-----------5----7----|--8------7------5----|
------------------|------5--------------|---------------------|
------------------|---------------------|---------------------|
------------------|---------------------|---------------------|
------------------|---------------------|---------------------|
------------------|---------------------|---------------------|
-------------------|--------------8--8--|------------7--7-----|
--5----------------|--------------------|------------------8--|
-------------------|--------------------|---------------------|
-------------------|--------------------|---------------------|
-------------------|--------------------|---------------------|
-------------------|--------------------|---------------------|
--0----------------|--------------10----|--10----------------|
-------------------|--------------------|--------------------|
-------------------|--------------------|--------------------|
-------------------|--------------------|--------------------|
-------------------|--------------------|--------------------|
-------------------|--------------------|--------------------|
----------8----7----|--8-----------------|--------------8----|
--------------------|-----------6--------|-------------------|
--------------------|--------------------|-------------------|
--------------------|--------------------|-------------------|
--------------------|--------------------|-------------------|
--------------------|--------------------|-------------------|
--8-------------------|--7------7--7---------|-------------------------|
---------8--8---------|-----------------9----|--10------10--9----10----|
-----------------9----|----------------------|-------------------------|
----------------------|----------------------|-------------------------|
----------------------|----------------------|-------------------------|
----------------------|----------------------|-------------------------|
------------------------|----------------------|------------------|
--9----10----9----10----|----------10----------|------------------|
------------------------|--10------------------|------------------|
------------------------|----------------------|------------------|
------------------------|----------------------|------------------|
------------------------|----------------------|------------------|
------5----4----5----|--4----5----4----5----|---------------------|
---------------------|----------------------|--6---5---3----------|
---------------------|----------------------|---------------------|
---------------------|----------------------|---------------------|
---------------------|----------------------|---------------------|
---------------------|----------------------|---------------------|
------------------|------5----4----5----|--4----5----4----5----|
------------------|---------------------|----------------------|
------------------|---------------------|----------------------|
------------------|---------------------|----------------------|
------------------|---------------------|----------------------|
------------------|---------------------|----------------------|
---------5----------|------------------|------5----4----5----|
--6-----------------|------------------|---------------------|
--------------------|------------------|---------------------|
--------------------|------------------|---------------------|
--------------------|------------------|---------------------|
--------------------|------------------|---------------------|
--4----5----4----5----|---------------------|------0----5----7----|
----------------------|--6---5--3-----------|---------------------|
----------------------|---------------------|---------------------|
----------------------|---------------------|---------------------|
----------------------|---------------------|---------------------|
----------------------|---------------------|---------------------|
--8------7------5----|-------------------|--------------8----|
---------------------|--5----------------|-------------------|
---------------------|-------------------|-------------------|
---------------------|-------------------|-------------------|
---------------------|-------------------|-------------------|
---------------------|-------------------|-------------------|
--8----------7--7-----|--0----------------|----------10----10----|
-------------------8--|-------------------|----------------------|
----------------------|-------------------|----------------------|
----------------------|-------------------|----------------------|
----------------------|-------------------|----------------------|
----------------------|-------------------|----------------------|
--10----------------|----------8----7----|--8-----------------|
--------------------|--------------------|---------6----------|
--------------------|--------------------|--------------------|
--------------------|--------------------|--------------------|
--------------------|--------------------|--------------------|
--------------------|--------------------|--------------------|
--------------8----|--8-------------------|--7------7--7----4----|
-------------------|---------8--8---------|----------------------|
-------------------|-----------------9----|----------------------|
-------------------|----------------------|----------------------|
-------------------|----------------------|----------------------|
-------------------|----------------------|----------------------|
--5----------------|-----------5----7----|--8------7------5----|
-------------------|------5--------------|---------------------|
-------------------|---------------------|---------------------|
-------------------|---------------------|---------------------|
-------------------|---------------------|---------------------|
-------------------|---------------------|---------------------|
-------------------|------------8--8--8--|--8------7------7-----|
--5----------------|---------------------|-------------------8--|
-------------------|---------------------|----------------------|
-------------------|---------------------|----------------------|
-------------------|---------------------|----------------------|
-------------------|---------------------|----------------------|
--0----------------|--------------10----|--10----------------|
-------------------|--------------------|--------------------|
-------------------|--------------------|--------------------|
-------------------|--------------------|--------------------|
-------------------|--------------------|--------------------|
-------------------|--------------------|--------------------|
----------8----7----|--8-----------------|--------------8----|
--------------------|---------6----------|-------------------|
--------------------|--------------------|-------------------|
--------------------|--------------------|-------------------|
--------------------|--------------------|-------------------|
--------------------|--------------------|-------------------|
--8-------------------|--7------7--7---------|-------------------------|
---------8--8---------|-----------------9----|--10----10----9----10----|
-----------------9----|----------------------|-------------------------|
----------------------|----------------------|-------------------------|
----------------------|----------------------|-------------------------|
----------------------|----------------------|-------------------------|
------------------------|----------------------|------------------|
--9----10----9----10----|----------10----------|------------------|
------------------------|--10------------------|------------------|
------------------------|----------------------|------------------|
------------------------|----------------------|------------------|
------------------------|----------------------|------------------|
------5----4----5----|--4----5----4----5----|---------------------|
---------------------|----------------------|--6---5---3----------|
---------------------|----------------------|---------------------|
---------------------|----------------------|---------------------|
---------------------|----------------------|---------------------|
---------------------|----------------------|---------------------|
------------------|------5----4----5----|--4----5----4----5----|
------------------|---------------------|----------------------|
------------------|---------------------|----------------------|
------------------|---------------------|----------------------|
------------------|---------------------|----------------------|
------------------|---------------------|----------------------|
---------5----------|------------------|------5----4----5----|
--6-----------------|------------------|---------------------|
--------------------|------------------|---------------------|
--------------------|------------------|---------------------|
--------------------|------------------|---------------------|
--------------------|------------------|---------------------|
--4----5----4----5----|---------------------||
----------------------|--6---5--3-----------||
----------------------|---------------------||
----------------------|---------------------||
----------------------|---------------------||
----------------------|---------------------||]
Документ
Категория
Ноты, аккорды
Просмотров
9
Размер файла
12 Кб
Теги
америка, помпилиус, гуд, наутилус, бай
1/--страниц
Пожаловаться на содержимое документа