close

Вход

Забыли?

вход по аккаунту

?

Наутилус Помпилиус - Прощальное письмо

код для вставкиСкачать
Прощальное письмо
>E7 Am C F
(1)Когда умолкнут все песни,
> G E7
Которых я не знаю,
> Am Dm
В терпком воздухе крикнет
> C E7 Am
Последний мой бумажный пароход.
Припев:Good-bye Америка, о,
Где я не был никогда.
Прощай навсегда.
Возьми банджо,
Сыграй мне на прощанье.
(2)Мне стали слишком малы
Твои теpтые джинсы.
Hас так долго yчили
Любить твои запpетные плоды.
Припев:Good-bye Америка, о,
Где я не буду никогда.
Услышу ли песню,
Которую запомню навсегда.
-
куплет:[e 0-1-0-8--8-8-8--8-8-8-7-5-0--10-10-10--8-7-8--1--
h -------------------------------------------------
e 8-8-1-1-0-7-7-7-4-5
h -------------------
припев:e 0-1-0-8--8-8-8--8-8-8-7-7-1-0--10-10--8-7-8--1--
h ------------------------
e 8-8-1-1-0-7-7-7-4-5
h -------------------
проигрыш:e 5-4-5-4-5-4-5-1--5--5-4-5-4-5-4-1-----5-4-5-4-5-4-5-1--5--
h -----------------------------------3--
e 8-8-1-1-0-7-7-7-4-5--
h ---------------------]
Когда умолкнут все песни,
Которых я не знаю,
В терпком воздухе крикнет
Последний мой бумажный пароход. Good-bye Америка, о,
Где я не был никогда.
Прощай навсегда.
Возьми банджо,
Сыграй мне на прощанье. Мне стали слишком малы
Твои теpтые джинсы.
Hас так долго yчили
Любить твои запpетные плоды. Good-bye Америка, о,
Где я не буду никогда.
Услышу ли песню,
Которую запомню навсегда.
-
[e|--------------------------------------------------------------|
b|--0--5-7-8--7--5--0-0--8-8--7-5-0-0(??)--10-10--8-7-8--3------|
g|--------------------------------------------------------------|
D|--------------------------------------------------------------|
A|--------------------------------------------------------------|
E|--------------------------------------------------------------|
e|--------------------------------------------------------------|
b|--8-8--3-0--7-8-7--5-5----------------------------------------|
g|--------------------------------------------------------------|
D|--------------------------------------------------------------|
A|--------------------------------------------------------------|
E|--------------------------------------------------------------|]
Документ
Категория
Ноты, аккорды
Просмотров
19
Размер файла
2 Кб
Теги
прощальная, помпилиус, наутилус, письмо
1/--страниц
Пожаловаться на содержимое документа