close

Вход

Забыли?

вход по аккаунту

?

Наутилус Помпилиус - Утро Полины

код для вставкиСкачать
Титаник (1994)
Утро Полины
!(В. Бутусов - И. Кормильцев)
>G Em
Руки Полины как забытая песня под упорной иглой
>G Em
Звуки ленивы и кружат как пылинки над ее головой
>C Am
Сонные глаза ждут того, кто придет и зажжет в них свет
>G Em
Утро Полины продолжается сто миллиардов лет
> C Hm
И все эти годы я слышу как колышится грудь
> C Hm
И от ее дыханья в окнах запотело стекло
> D Em
И мне не жаль того, что так бесконечен мой путь
> C D
В ее хрустальной спальне постоянно, постоянно светло
Я знаю тех, кто дождется и тех, кто, не дождавшись, умрет
Но и с теми, и с другими одинаково скучно идти
Я люблю тебя за то, что твое ожидание ждет
Того, что никогда не сможет произойти
Пальцы Полины словно свечи в канделябрах ночей
Слезы Полины превратились в бесконечный ручей
В комнате Полины на пороге нерешительно мнется рассвет
Утро Полины продолжается сто миллиардов лет
И все эти годы я слышу как колышится грудь
И от ее дыханья в окнах запотело стекло
И мне не жаль того, что так бесконечен мой путь
В ее хрустальной спальне постоянно светло
-
!Между куплетами:
[e|-7h8p7~-|-8p7p5~-|-7/10\8~-|----15/17\15~-|-19~----|-17\15-15/17~-|
B|--------|--------|---------|-15-----------|--------|--------------|
e|-15/17----19~-|-17/19-17-15-15/17~-|
B|--------------|--------------------|
Окончание:e|-14h15-14-15-17-14-|-14-15-17-12-|-15-15-17-19-15-|-14-15-17-12-|
B|-------------------|-------------|----------------|-------------|
e|-7h8-7-8-10-7-|-7-8-10-5-|-7h8-7-8-10-7-|-7-8-5/7-|
B|--------------|----------|--------------|---------|
e|-11-12-12-10-10-8-8-8-8-|-7-5----------------|
B|------------------------|--------------5-5h7-|
e|-11-12-12-10-10-8-8-8-8-|-7-5/14-15/17\15----|
B|------------------------|-----------------12-|
e|--------10-----|--------10-----|-12--12-14-15-14h15-15-14-|
B|-7777-8----8-7-|-7777-8----8-7-|--------------------------|
e|-----10-----|-----9-----9h10-|--------------|
B|-7-8----8-7-|-7-8---8-7------|-10-8-7-7h8p7-|]
Документ
Категория
Ноты, аккорды
Просмотров
14
Размер файла
2 Кб
Теги
помпилиус, наутилус, утро, полина
1/--страниц
Пожаловаться на содержимое документа