close

Вход

Забыли?

вход по аккаунту

?

Нечетный воин - Теперь ты знаешь

код для вставкиСкачать
Теперь ты знаешь
!(Би-2 и David Sterry)
Вступление:< Hm Em F#m Hm G F#m>
[E||----------|-----------|----------|-----------||
H||----------|-----------|----------|-3----2----||
G||--4-------|-----------|--4-------|-----------||
D||----------|-2----4----|----------|-----------||
> Hm Em F#m
E||-----------------------|----------------------|
H||--------------------2--|----0-----------------|
G||-------4---------4-----|-----------------2----|
D||------------4----------|--------------4-------|
A||--2--------------------|---------4------------|
E||--------------------0--|---------2------------|]
> Hm G F#m
|-----------------------|----------------------||
|-----------------------|----3-----------------||
|-------4---------------|-----------------2----||
|------------4-------0--|--------------4-------||
|--2--------------2-----|---------4------------||
|--------------------3--|---------2------------||
>Hm Em F#m Hm G F#m
Путии обратного верста, на позабытые места.
Я ставлю триста против ста, что опоздаешь.
И под обломками любви, опять ни неба, ни земли.
На что похожи эти дни - теперь ты знаешь.
Давай придумать что-нибудь, попробуй взглядом обмануть,
Вернуться с тем, чтобы вернуть, и проиграешь...
И не придуманная вдруг глухая тишина вокруг.
Тот в зеркале тебе совсем не друг - теперь ты знаешь.
>G F#m
Оттого, что ты есть, продолжается путь,
>F#m F#7 G
Оттого, что ты здесь, ничего не вернуть,
Не откроется дверь, там за дверью стена,
И тогда... и теперь... это та же война.
И незаметно для себя изменишь все и навсегда,
Хотя так было не всегда, не отыграешь.
Так было, есть и будет впредь, Ромео должен умереть,
Давай, попробуй это спеть - теперь ты знаешь.
!Припев
Do you believe in heaven above, do you believe in love?
Don't tell a lie, don't be false or untrue, it all comes back to you.
Open fire on my burning heart, I've never been lucky in love.
My defenses are down, a kiss or a frown, I can't survive on my own.
It gets in your eyes, it's making you cry,
Don't know what to do, don't know what to do
You're looking for love, calling heaven above...
Send me an angel... Send me an angel...
Send me an angel... Send me an angel...
Right now...
Документ
Категория
Ноты, аккорды
Просмотров
4
Размер файла
2 Кб
Теги
теперь, знаешь, воин, нечетный
1/--страниц
Пожаловаться на содержимое документа